» » »

Girlpool - 123 Tabs

Artists:  A B C D E F G H I J K L M N O P Q R S T U V W X Y Z # 

123 Tabs

(ver. 1) Click to play this song!
Girlpool
 Rating:
4.3/5 (18 votes)

 123 lessons Tabs too difficult? Try these video lessons and learn fast
 
                --------
Guitar 1
--------
Standard Tuning

e|-------------------------3-3-3-3-------------|
B|-------------------------3-3-3-3---2-2-2-2---|
G|---0-0---0-0---0-0-0-0---0-0-0-0---2-2-2-2---|
D|---4-4---4-4---4-4-4-4---0-0-0-0---2-2-2-2---|
A|---5-5---5-5---5-5-5-5---2-2-2-2---0-0-0-0---|
E|---------7-7---5-5-5-5---3-3-3-3-------------|

The little riff during transition from G to A is:

e|---3-3----------------------|
B|---3-3---3----2--0----------|
G|---0-0-----0---------2--0---|
D|---0-0----------------------|
A|---2-2--------0--0---0--0---|
E|---3-3---3------------------|

------------------
Guitar 2 (or Bass)
------------------

Standard Tuning

e|---------------------------------------------|
B|---------------------------------------------|
G|---------------------------------------------|
D|---------------------------------------------|
A|---5-5--2-2----------------------------------|
E|---------------5-5-5-5----3-3-3-3--3-3-3-3---|

e|---------------------------------------------|
B|---------------------------------------------|
G|---------------------------------------------|
D|---------------------------------------------|
A|---5-5--2-2----------------------------------|
E|---------------5-5-5-5----3-3-3-3--5-5-5-5---|

Fill during outro


e|------------------------|-------------------------------------|
B|------------------------|-------------------------------------|
G|------------------------|-------------------------------------|
D|------------------------|-----0---0---0---0---0---0---0---0---|
A|---5-5--2-2-------------|---2---2---4---4---5---5---7---7-----|
E|---------------5-5-5-5--|-------------------------------------|
            
Submit corrections


        123 lessons Hard to play? Try these video lessons and learn fast 123 lessons
        
↑ Back to top | Tablatures and chords for acoustic guitar and electric guitar, ukulele, drums are parodies/interpretations of the original songs. You may use it for private study, scholarship, research or language learning purposes only