» » »

Ghinzu - Dragster Wave Tabs

Artists:  A B C D E F G H I J K L M N O P Q R S T U V W X Y Z # 

Dragster Wave Tabs

(ver. 1) Click to play this song!
Ghinzu
 Rating:
4.6/5 (9 votes)

 Dragster Wave lessons Tabs too difficult? Try these video lessons and learn fast
 
                ----------------------------------------------------------------------------
----------------------------------------------------------------------------

Tuning: Standard (EADGBe)

If anyone has seen the movie Taken, this was in the end credits.
The original song is actually about 6 minutes long but I'm tabbing the
movie version where it starts about half-way through the song with the
piano solo.


*UPDATED! Piano part is now included in tab form for those wishing to
play it on guitar. It's at the end of the original tab, scroll down.
If you want the sheet music of the piano part, let me know as I've
written it out.



| pm palm mute 
| /  slide up
| ~  vibrato
| x  Mute note

Intro: (44 sec into piano solo)

Guitar 1: Overdrive
e|---------------------------------------------------|
B|-----------------------------------------Go--------|
G|----------------------------------------straight---|
D|--------5------------------17--15--------to next---|
A|-5--8-5----8-5--/12--15-12---------12-----line-----|  
E|---------------------------------------------------|
  (slightly pm)                                      | Play 3 times
                                                     |
e|---------------------------------------------------|  
B|---------------------------------------------------|
G|---------------------------------------------------|
D|-----------19--17-15--------15-----14-----14-------|
A|-13--17-13---------------15---15------15-----15----| 
E|----------------------13--------15------15-----15--|

Guitar 2: Distortion (enters on guitar 1's third time)
e|-------------------------------------------------------------------------|
B|-------------------------------------------------------------------------|
G|-77777777-77777777-------------------------------------------------------|
D|-77777777-77777777-77777777-77777777-88888888-88888888-33333333-33333333-|
A|-55555555-55555555-77777777-77777777-88888888-88888888-33333333-33333333-|
E|-------------------55555555-55555555-66666666-66666666-11111111-11111111-|

Verse 1: 
Both guitars:
e|-----------------------------------------------------------------------|
B|-----------------------------------------------------------------------|
G|77777777-77777777-55555555-55555555------------------------------------|
D|77777777-77777777-55555555-55555555-88888888-88888888-33333333-33333333|x2
A|55555555-55555555-33333333-33333333-88888888-88888888-33333333-33333333|
E|------------------------------------66666666-66666666-11111111-11111111|

Chorus 1:
Both guitars
e|--------------------------------------|
B|--------------------------------------|
G|-7777-xx-7-777-xx--6666-xx-6-666-xx---|
D|-7777-xx-7-777-xx--7777-xx-7-777-xx---|
A|-5555-xx-5-555-xx--4444-xx-4-444-xx---|
E|--------------------------------------|  
                                            Play 2 times
e|--------------------------------------|
B|--------------------------------------|
G|-------------------6666-xx-8-886-xxx--|
D|-8888-xx-8-888-xx--8888-xx-8-888-xxx--|
A|-8888-xx-8-888-xx--8888-xx-8-888-xxx--|
E|-6666-xx-6-666-xx---------------------|

Post-Chorus 1:
Guitar 1: Overdrive
e|---------------------------------------|
B|---------------------------------------|
G|---------------------------------------|
D|--------5------------------15--14~~----|
A|-5--8-5----8-5--/10--13-10-------------|
E|---------------------------------------|

e|---------------------------------------|
B|---------------------------------------|
G|---------------------------------------|
D|-----------17--15~~-----------19--17~~-|
A|-12--15-12----------13--16-13----------|
E|---------------------------------------|

Guitar 2: Distortion
e|-------------------------------------------------------------------------|
B|-------------------------------------------------------------------------|
G|-77777777-77777777-------------------------------------------------------|
D|-77777777-77777777-55555555-55555555-77777777-77777777-88888888-888888888|
A|-55555555-55555555-55555555-55555555-77777777-77777777-88888888-888888888|
E|-------------------33333333-33333333-55555555-55555555-66666666-666666666|


*Verse 2: same as verse 1

*Chorus 2: same as chorus 1

*Post-Chorus 2: play post-chorus 1 twice


Optional Guitar 3 enters at end of Chorus 2
e|-----------------------------------------|
B|---21------------------------------------|
G|-----------------------------------------|
D|-bend and release -----------------------|
A|-as you think----------------------------|
E|-----------------------------------------|



____________________________________________________________________________
Piano part: (You might like to fingerpick this) 
            (Let all notes ring, especially bass notes when possible)
Intro:

e|-------------------------------------------------------------------|
B|-1-------1-------2-------1--------1-------1-------2-------1--------|
G|---0---0---0---0---0---0---0---0----1---1---1---1---1---1---1---1--|
D|-----2-------2-------2-------2--------3-------3-------3-------3----|
A|-------------------------------------------------------------------|
E|-0--------------------------------1--------------------------------|

e|--------------------------------------------------0-------1--------|
B|-1-------1-------2-------1--------3-------3------------------------|
G|---0---0---0---0---0---0---0---0----2---2---2---2---2---2---2---2--|
D|-----2-------2-------2-------2----0---3-------3-------3-------3----|
A|-------------------------------------------------------------------|
E|-3-----------------------------------------------------------------|

e|-5-------5-------3-------1------------------------0-------1--------|
B|-------------------2---2---2---2--3-------3------------------------|
G|---5---5---5---5-----2-------2------2---2---2---2---2---2---2---2--|
D|-----7-------7--------------------0---3-------3-------3-------3----|
A|-0---------------4-----------0-------------------------------------|
E|-------------------------------------------------------------------|
(Bar G,B,e strings with index finger at fret 5)

e|-0-------0--------0-------0------------------------0-------1--------|
B|---2-------2--------2-------2------3-------3------------------------|
G|-----3-------3--------3-0-----3------2---2---2---2---2---2---2---2--|
D|-------5-------5----------------5--0---3-------3-------3-------3----|
A|-0-----------0----1-------------------------------------------------|
E|--------------------------------------------------------------------|

e|-5-------5--------3-------1------------------------0-------1--------|
B|--------------------2---2---2---2--3-------3------------------------|
G|---5---5---5---5------2-------2------2---2---2---2---2---2---2---2--|
D|-----7-------7---------------------0---3-------3-------3-------3----|
A|-0----------------4-----------0-------------------------------------|
E|--------------------------------------------------------------------|

e|-0-------0--------1--------0--------|
B|------------------------------------|
G|---0---0---0---0----2---2----2---2--|
D|-----2-------2--------3--------3----|
A|-0----------------1-----------------|
E|------------------------------------|
              (bar down fret 1 and lift wrist up to play open e string)


End of intro/Verse 1: (play sequence 5 times)

e|-1-------1-------1-------0--------1-------1-------1-------0--------|
B|-------------------------------------------------------------------|
G|---2---2---2---2---2---2---2---2----2---2---2---2---2---2---2---2--|
D|-----3-------3-------3-------3--------3-------3-------3-------3----|
A|-5--------------------------------3--------------------------------|
E|-------------------------------------------------------------------|
  (If you can't reach fret 5 using pinky, play open D string instead)

e|-1-------1-------1-------0--------1-------1-------1-------0--------|
B|-------------------------------------------------------------------|
G|---2---2---2---2---2---2---2---2----2---2---2---2---2---2---2---2--|
D|-----3-------3-------3-------3--------3-------3-------3-------3----|
A|-1-----------------------------------------------------------------|
E|----------------------------------1--------------------------------|


Chorus 1: (play sequence twice)

e|---1---|---0---|---1---|-------------1--|
B|---3---|---2---|---3---|--2--2---4---2--|
G|---2---|---2---|---3---|--3--3---3---3--|
D|---0---|---2---|---3---|--3--3---3---x--|
A|-------|---0---|---1---|--4--4---4---4--|
E|-------|-------|-------|----------------|
Play each chord 4 times except the last bar, play as written.
Or play your own rhythm

Post-chorus 1:

e|-1-------1-------1-------0--------0-------0-------0----------------|
B|----------------------------------------------------------3--------|
G|---2---2---2---2---2---2---2---2----2---2---2---2---2---2---2---2--|
D|-----3-------3-------3-------3--------3-------3-------3-------3----|
A|-5-----------------------------------------------------------------|
E|----------------------------------3--------------------------------|
 (If you can't reach fret 5 using pinky, play open D string instead)

e|-0-------0-------0----------------0-------0-------0-------1--------|
B|-------------------------3-----------------------------------------|
G|---2---2---2---2---2---2---2---2----2---2---2---2---2---2---2---2--|
D|-----3-------3-------3-------3--------3-------3-------3-------3----|
A|-0--------------------------------1--------------------------------|
E|-------------------------------------------------------------------|


*Verse 2: play "End of intro/verse 1" sequence twice

Chorus 2: (play sequence twice)

e|-------------------------------------------------------------------|
B|-3-------3-------3-------3--------2-------2-------2-------2--------|
G|---2---2---2---2---2---2---2---2----0---0---0---0---0---0---0---0--|
D|-----3-------3-------3-------3--------2-------2-------2-------2----|
A|-5--------------------------------0--------------------------------|
E|-------------------------------------------------------------------|

e|----------------------------------------------------------1--------|
B|-3-------3-------3-------3--------2-------2-------4----------------|
G|---3---3---3---3---3---3---3---3----3---3---3---3---3---3---3---3--|
D|-----3-------3-------3-------3--------3-------3-------3-------3----|
A|-1--------------------------------4--------------------------------|
E|-------------------------------------------------------------------|


*Post-chorus 2: Play "Post-chorus 1" sequence twice
End on D minor chord


That's all, it's quite simple. Piano bit's a difficult though since it's 
not meant to be played on guitar but it's there for those without a piano.
Also, if you're looking for the first half of the original song,
there's a nice guitar pro tab somewhere on 911 tabs.

Please rate and comment!
            
Submit corrections


        Dragster Wave lessons Hard to play? Try these video lessons and learn fast Dragster Wave lessons
        
↑ Back to top | Tablatures and chords for acoustic guitar and electric guitar, ukulele, drums are parodies/interpretations of the original songs. You may use it for private study, scholarship, research or language learning purposes only