» » »

Get Up Kids - Overdue Tabs

Artists:  A B C D E F G H I J K L M N O P Q R S T U V W X Y Z # 

Overdue Tabs

(ver. 3) Click to play this song!
Get Up Kids
 Rating:
4/5 (4 votes)

 Overdue lessons Tabs too difficult? Try these video lessons and learn fast
 
                Standard Tuning

Verse
E|-5-5-5-5-5-5-5---7-7-7-7-7-7-7---2-2-2-2-2-2-2--|
B|-6-6-6-6-6-6-6---7-7-7-7-7-7-7---2-2-2-2-2-2-2--|
G|-7-7-7-7-7-7-7---7-7-7-7-7-7-7---4-4-4-4-4-4-4--|
D|-7-7-7-7-7-7-7---9-9-9-9-9-9-9---5-5-5-5-5-5-5--|
A|-5-5-5-5-5-5-5---9-9-9-9-9-9-9---5-5-5-5-5-5-5--|
E|-----------------7-7-7-7-7-7-7---3-3-3-3-3-3-3--|

Solo
E|--------------------------------------------------------|
B|--------------------------------------------------------|
G|--------------------------------------------------------|
D|-9--7--7p5--4--2-4--4-----------------------------------|
A|-----------------------2--4--5--7-5-4---5p4--2----0--2--|
E|--------------------------------------------------------|

Chorus
E|-5-5-5-5-5-5-5---2-2-2-2-2-2-2---3-3-3-3-3-3-3---2-2-2-2-2-2-2--|
B|-5-5-5-5-5-5-5---2-2-2-2-2-2-2---3-3-3-3-3-3-3---2-2-2-2-2-2-2--|
G|-7-7-7-7-7-7-7---4-4-4-4-4-4-4---4-4-4-4-4-4-4---3-3-3-3-3-3-3--|
D|-7-7-7-7-7-7-7---4-4-4-4-4-4-4---5-5-5-5-5-5-5---4-4-4-4-4-4-4--|
A|-5-5-5-5-5-5-5---2-2-2-2-2-2-2---5-5-5-5-5-5-5---4-4-4-4-4-4-4--|
E|---------------------------------3-3-3-3-3-3-3---2-2-2-2-2-2-2--|
Thanks for looking and I know this tab is 100% perfect.
            
Submit corrections


        Overdue lessons Hard to play? Try these video lessons and learn fast Overdue lessons
        
↑ Back to top | Tablatures and chords for acoustic guitar and electric guitar, ukulele, drums are parodies/interpretations of the original songs. You may use it for private study, scholarship, research or language learning purposes only