» » »

Get Up Kids - Overdue Tabs

Artists:  A B C D E F G H I J K L M N O P Q R S T U V W X Y Z # 

Overdue Tabs

(ver. 1) Click to play this song!
Get Up Kids
 Rating:
4/5 (4 votes)

 Overdue lessons Tabs too difficult? Try these video lessons and learn fast
 
                
Intro/Verse
Gtr 1  (listen to cd for strumming)
   B  D   G  B  F# G
|---------------------|
|--2--5------2--------|
|--4--7---4--4--3--4--|
|--4--7---5--4--4--5--|
|--2--5---5--2--4--5--|
|---------3-----2--3--|

Gtr2 Break                                                                          Verse Fills x a couple
|------------------------------------------------------|--14~------|
|------------------------------------------------------|--------12~|
|--4-2-2h4p2p0-0-2h4-2-0-2-0-4-------------------------|-----------|
|------------------------------0-2-4-5-2-0-2-4-2-0-2---|-----------|
|------------------------------------------------------|-----------|
|------------------------------------------------------|-----------|


Chorus

Gtr1
|--------------|
|--5--2--------|
|--7--4--4--3--|
|--7--4--5--4--|
|--5--2--5--4--|
|--------3--2--|
 
Gtr 2                                                   
|-------------------------------------------|
|--3-5-7---7-7p5-3---5b7-7-7p5-3--5--2-3-5--|
|-------------------------------------------|
|-------------------------------------------|
|-------------------------------------------|
|-------------------------------------------|

after chorus 2
Gtr1
|--------------|
|-----5--------|
|--3--7--4--3--|
|--4--7--5--4--|
|--4--5--5--4--|
|--2-----3--2--|

Gtr 2
|-----------------|
|-----------3--3--|
|--------4-----2--|
|--2--4--------0--|
|-----------------|
|-----------------|
            
Submit corrections


        Overdue lessons Hard to play? Try these video lessons and learn fast Overdue lessons
        
↑ Back to top | Tablatures and chords for acoustic guitar and electric guitar, ukulele, drums are parodies/interpretations of the original songs. You may use it for private study, scholarship, research or language learning purposes only