» » »

Get Set Go - Wait Tabs

Artists:  A B C D E F G H I J K L M N O P Q R S T U V W X Y Z # 

Wait Tabs

(ver. 1) Click to play this song!
Get Set Go
 Rating:
4/5 (7 votes)

 Wait lessons Tabs too difficult? Try these video lessons and learn fast
 
                -------------------------------------------------------------------------------
-------------------------------------------------------------------------------

Tuning: Standard (e,B,G,D,A,E)

Riff 1

e|---------------------------------------------------------------------------|
B|----0-0----0-0----0-0-------------1-1-----1-1-----1-1----------------------|
G|----0-0----0-0----0-0-------------0-0-----0-0-----0-0----------------------|
D|---------------------------------------------------------------------------|
A|--------------------------------3-------2-------0-------0-2-3--------------|
E|--3------2------0------0-2-3-----------------------------------------------|

Riff 2

e|---------------------------------------------------------------------------|
B|----0-----0-----0-----0-----0-----0-----0-----0----------------------------|
G|------0-----0-----0-----0-----0-----0-----0-----0--------------------------|
D|---------------------------------------------------------------------------|
A|--5-----5-----3-----3-----2-----2-----0-----0------------------------------|
E|---------------------------------------------------------------------------|

e|---------------------------------------------------------------------------|
B|----0-----0-----0-----0-----0-----0-----0-----0----------------------------|
G|------0-----0-----0-----0-----0-----0-----0-----0--------------------------|
D|---------------------------------------------------------------------------|
A|--5-----5-----9-----9-----3-----3-----2-----2------------------------------|
E|---------------------------------------------------------------------------|

Riff 3

e|---------------------------------------------------------------------------|
B|----0-0----0-0----0-0-------------1-1-----1-1-----1-1-------------------0--|
G|----0-0----0-0----0-0-------------0-0-----0-0-----0-0----------------------|
D|---------------------------------------------------------------------------|
A|--------------------------------3-------2-------0-------0---2---3----------|
E|--3------2------0------0-2-3--------------------------------------------3--|

Riff 1- x8
Riff 2- x1
Riff 1- x5
Riff 2- x1
Riff 1- x5
Riff 3- x1


I think that's pretty much it. It's a really easy song and it's fun to play. haha.

And it sounds like there are 2 guitars, an acoustic and a clean electric, but they both 
like they play the same thing.
===============================================================================
            
Submit corrections


        Wait lessons Hard to play? Try these video lessons and learn fast Wait lessons
        
↑ Back to top | Tablatures and chords for acoustic guitar and electric guitar, ukulele, drums are parodies/interpretations of the original songs. You may use it for private study, scholarship, research or language learning purposes only