» » »

George Michael - Careless Whispers Bass

Artists:  A B C D E F G H I J K L M N O P Q R S T U V W X Y Z # 

Careless Whispers Bass

(ver. 2) Click to play this song!
George Michael
 Rating:
3.6/5 (5 votes)

 Careless Whispers lessons Tabs too difficult? Try these video lessons and learn fast
 
                9-7----9-7---------------------------------------------|
---7-------7--10-8-----10-8-----8-7--------------------|
----8-------8-----8---------12-----8-------------------|   
-------------------12----------------10-6--------------|      


----------------7--------------------------------------|
----------6-7-9----------------------------------------|
-5-6-8-10----------------------------------------------|   
-------------------------------------------------------|      
            
Submit corrections


        Careless Whispers lessons Hard to play? Try these video lessons and learn fast Careless Whispers lessons
        
↑ Back to top | Tablatures and chords for acoustic guitar and electric guitar, ukulele, drums are parodies/interpretations of the original songs. You may use it for private study, scholarship, research or language learning purposes only