» » »

Gary Jules - Mad World Bass

Artists:  A B C D E F G H I J K L M N O P Q R S T U V W X Y Z # 

Mad World Bass

(ver. 2) Click to play this song!
Gary Jules
 Rating:
4/5 (4 votes)
                G|------9---------------------------------------| intro
D|--10----9-10-7-9-5-4--4---4-------------------|
A|------------------------5---------------------|
E|----------------------------------------------|

G|------9---------------------------------------| intro
D|--10----9-10-7-9-10-12--12------12------------|
A|---------------------------10-----------------|
E|----------------------------------------------|

G|------2-2-----6-6-6-2--4-4-4----4-4-4-2-1-----| verse
D|--4-4-----4-4----------------6------------4---| X4
A|----------------------------------------------|
E|----------------------------------------------|

G|------2-2-6-6-8-4--4-8-8-4-4------------------| chorus
D|--4-4-------------------------4---------------| X4
A|----------------------------------------------|
E|----------------------------------------------|

G|--2----| bridge
D|----4--| X4
A|-------|
E|-------|
            
Submit corrections

↑ Back to top | Tablatures and chords for acoustic guitar and electric guitar, ukulele, drums are parodies/interpretations of the original songs. You may use it for private study, scholarship, research or language learning purposes only