» » »

Gary Jules - Mad World Bass

Artists:  A B C D E F G H I J K L M N O P Q R S T U V W X Y Z # 

Mad World Bass

(ver. 1) Click to play this song!
Gary Jules
 Rating:
3.8/5 (11 votes)
                R.E.M/Gary Jules - Mad World

G|------2-2-----6-6-6-2--4-4-4----4-4-4-2-1-----| verse
D|--4-4-----4-4----------------6------------4---| X4
A|----------------------------------------------| "all around me.."
E|----------------------------------------------|

G|------2-2-6-6-8-4--4-8-8-4-4------------------| chorus
D|--4-4-------------------------4---------------| X4
A|----------------------------------------------| "and I find it.."
E|----------------------------------------------|

G|--2----| bridge
D|----4--| X4
A|-------| "..Mad World"
E|-------|

enjoy!
            
Submit corrections

↑ Back to top | Tablatures and chords for acoustic guitar and electric guitar, ukulele, drums are parodies/interpretations of the original songs. You may use it for private study, scholarship, research or language learning purposes only