» » »

Gary Clark Jr - When My Train Pulls In Tabs

Artists:  A B C D E F G H I J K L M N O P Q R S T U V W X Y Z # 

When My Train Pulls In Tabs

(ver. 3) Click to play this song!
Gary Clark Jr
 Rating:
4.1/5 (21 vote)

 When My Train Pulls In lessons Tabs too difficult? Try these video lessons and learn fast
 
                Tuning: Standard

Chords Used:
    Em   Am Am7no5  Am6no5  Bm   Em*
e|--x----x----x--------x-----x----7-------------------------------------------------|
B|--x----5----8--------7-----7----8-------------------------------------------------|
G|--x----5----5--------5-----7----9-------------------------------------------------|
D|--2----7----7--------7-----9----9-------------------------------------------------|
A|--2----x----x--------x-----x----7-------------------------------------------------|
E|--0----5----5--------5-----7----x-------------------------------------------------|



Intro & Verse 1
e|-------------------------|
B|-------------------------|
G|-------------------------|
D|-----0-------0h2---2-----| 
A|-0h2---0-2---------------|
E|-----------3-----0---0---|

   0:46            Am  Am7            Am6               Em
e|------------------x----------------------------------------------------------------------|
B|------------------5-----8-------8------7-------7-----------------------------------------|
G|------------------5----5--5---5---5--5---5---5---5---------------------------------------|
D|------0-----------7--7------7------7-------7----------0h2---2--------0-------0h2----2----|
A|--0h2---0-2-------x----------------------------------------------0h2---0-2---------------|
E|------------3--/5-5---------------------------------------0---0------------3------0----0-|

   0:57              Bm   Am7 Am
e|-------------------x--x--x--x--|
B|-------------------7--7--8--5--|
G|-------------------7--7--5--5--|
D|------0------------9--9--7--7--|
A|--0h2---0-2--------x--x--x--x--|
E|------------3--/7--7--7--5--5--|


e|-------------------------|
B|-------------------------|
G|-------------------------|
D|-----0-------0h2---2-----| X3
A|-0h2---0-2---------------|
E|-----------3-----0---0---|

  1:10
    Em*
e|---7-7-7-7-7-7-7-7----|
B|---8-8-8-8-8-8-8-8----|
G|---9-9-9-9-9-9-9-9----| X4
D|---9-9-9-9-9-9-9-9----|
A|---7-7-7-7-7-7-7-7----|
E|----------------------|

 1:22
    Am   
e|--x--x--x--x---x----------------------------|
B|--5--5--5--5---5----------------------------|
G|--5--5--5--5---5----------------------------|
D|--7--7--7--7---7---------0-------0h2---2----|
A|--x--x--x--x---x-----0h2---0-2--------------|
E|--5--5--5--5---5---------------3-----0---0--|

                     Bm    Am
e|-------------------x--x--x--x--|
B|-------------------7--7--5--5--|
G|-------------------7--7--5--5--|
D|------0------------9--9--7--7--|
A|--0h2---0-2--------x--x--x--x--|
E|------------3--/7--7--7--5--5--|            
Submit corrections


        When My Train Pulls In lessons Hard to play? Try these video lessons and learn fast When My Train Pulls In lessons
        
↑ Back to top | Tablatures and chords for acoustic guitar and electric guitar, ukulele, drums are parodies/interpretations of the original songs. You may use it for private study, scholarship, research or language learning purposes only