Home » G » Gary Clark Jr »

Gary Clark Jr - Travis County Tabs

Artists:  A B C D E F G H I J K L M N O P Q R S T U V W X Y Z # 

Travis County Tabs

(ver. 1) Click to play this song!
Gary Clark Jr
 Rating:
2.4/5 (25 votes)
                Tuning: Standard

                                7 Times
e|---------------------------------------------------------------------------|
B|------------------------------------------5--------------------------------|
G|------------------------------------------5--------------------------------|
D|--5--5--7----5--5--7----5--5--7--5--5--7-----------------------------------|
A|--3--3--3----3--3--3----3--3--3--3--3--3-----------------------------------|
E|---------------------------------------------------------------------------|

                                 1 Time
e|---------------------------------------------------------------------------|
B|---------------------------------------------------------------------------|
G|---------------------------------------------------------------------------|
D|---------------------------------------------------------------------------|
A|--5--5--7----5--5--7----5--5--7--5--5--7-----------------------------------|
E|--3--3--3----3--3--3----3--3--3--3--3--3-----------------------------------|            
Submit corrections

↑ Back to top | Tablatures and chords for acoustic guitar and electric guitar, ukulele, drums are parodies/interpretations of the original songs. You may use it for private study, scholarship, research or language learning purposes only