» » »

Gary Clark Jr - Travis County Tabs

Artists:  A B C D E F G H I J K L M N O P Q R S T U V W X Y Z # 

Travis County Tabs

(ver. 2) Click to play this song!
Gary Clark Jr
 Rating:
4.3/5 (21 vote)

 Travis County  lessons Tabs too difficult? Try these video lessons and learn fast
 
                
Intro
     C5 prog                       G5 prog
e|--------------------------------------------------------------------------------|
B|--------------------------------------------------------------------------------|
G|-------------------------------------7-7-9-7-7-9-7-7-9-7-7-9--------------------|
D|---5-5-7-5-5-7-5-5-7-5-5-7-2---(x8)--5-5-5-5-5-5-5-5-5-5-5-5--2-then-C5-prog-x1-|
A|---3-3-3-3-3-3-3-3-3-3-3-3-3----------------------------------3-----------------|
E|--------------------------------------------------------------------------------|

Also we will have

   F5 prog
e|-----------------------------|
B|-----------------------------|
G|--5-5-7-5-5-7-5-5-7-5-5-7----|
D|--3-3-3-3-3-3-3-3-3-3-3-3----|
A|-----------------------------|
E|-----------------------------|

After the intro

Calling the following progression (a):
C5 prog x 2
G5 prog x 1
C5 prog x 1 

0:32
Progression (a) x 2


Next part is progression (b):
F5 prog x1
C5 prog x1
G5 prog x1
C5 prog x1

Progression (b) x1

Then progression (a) x1

Solo

e|----8-8-----|----8----|-8-------|-8---8-----|------------------------8----------|
B|-/8-8-8-x6--|-/8-8-x6-|---11-10-|-8---8-----|------8----------------------------|
G|------------|---------|---------|-10b----x5-|--10b---10b-8-10----8-10--8--------|
D|------------|---------|---------|-----------|-----------------10--------10---10-|
A|------------|---------|---------|-----------|-----------------------------------|
E|------------|---------|---------|-----------|-----------------------------------|

e|-----------------------------8--------------------------------------|
B|-7\8-----7\8---7h8------7\8--8------7\8--7h8-----7\8---7h8-----7\8--|
G|-8\9-----8\9------------8\9--9------8\9----------8\9-----------8\9--|
D|------10------------10-------10--10-----------10------------10------|
A|--------------------------------------------------------------------|
E|--------------------------------------------------------------------|


e|-------------11b—11b-------8----8h11p8------8-8---8-8---8-8----8-8-----------|
B|-8--11-10-8------------------11--------11-8---11b---11b---11b----10--8-------|
G|-----------------------------------------------------------------10--8h9-----|
D|-------------------------------------------------------------------------10--|
A|-----------------------------------------------------------------------------|
E|-----------------------------------------------------------------------------|


e|-----------------------------------------------------------------------|
B|---------7-7-----------------------------------------------------------|
G|--10-10-----------fades-out-a-little-here------------------------------|
D|-----------------------------------------------------------------------|
A|-----------------------------------------------------------------------|
E|-----------------------------------------------------------------------|

Next part is progression (b) x1

Then back progression (a) x 3

Drum Break

C5 prog played until

3:13

e|--8----8--8------------------11-10-8---------------------------8---|
B|--8----8--8--------------------------11-10-8-------------------8---|
G|--10b--------(x17)----------------------------10-8h9-----------9---|
D|-----------------------------------------------------10-8—2~-------|
A|-------------------------------------------------------------------|
E|-------------------------------------------------------------------|            
Submit corrections


        Travis County  lessons Hard to play? Try these video lessons and learn fast Travis County  lessons
        
↑ Back to top | Tablatures and chords for acoustic guitar and electric guitar, ukulele, drums are parodies/interpretations of the original songs. You may use it for private study, scholarship, research or language learning purposes only