» » »

Gary Clark Jr - Things Are Changin Tabs

Artists:  A B C D E F G H I J K L M N O P Q R S T U V W X Y Z # 

Things Are Changin Tabs

(ver. 3) Click to play this song!
Gary Clark Jr
 Rating:
1.8/5 (28 votes)

 Things Are Changin lessons Tabs too difficult? Try these video lessons and learn fast
 
                Tuning:
INTRO
 
e|------0------------------0---------------4-----4-----4---------------------|
B|----7---------7--------7--------0------0-----0-----0----0------------------|
G|--6---------6--------6--------6------6-----6-----6----6--------------------|
D|---------------------------------------------------------------------------|
A|5--------5--------5---------5------0---------------------------------------|
E|---------------------------------------------------------------------------|


I------0---------0---------4-------5-------7------------------|I
I-----7---7----7---0-----0-------0-------0----0---------------|I
I---6---6----6---6-----6-------6-------6----6-----------------|I
I-------------------------------------------------------------|I
I5----5----5---5-----0-------0-------0------------------------|I
I-------------------------------------------------------------|I

e|------0------------------0---------------4-----4-----4---------------------|
B|----7---------7--------7--------0------0-----0-----0----0------------------|
G|--6---------6--------6--------6------6-----6-----6----6--------------------|
D|---------------------------------------------------------------------------|
A|5--------5--------5---------5------0---------------------------------------|
E|---------------------------------------------------------------------------|

e|------0------------------0---------------4-5-7-----------------------------|
B|----7---------7--------7--------7--------------0---------------------------|
G|--6---------6--------6--------6--------------------------------------------|
D|---------------------------------------------------------------------------|
A|5--------5--------5---------5----------------------------------------------|
E|---------------------------------------------------------------------------|



Just repeat this the whole song.
e|---------------------------------------------------------------------------|
B|----7------7-------5------5------------------------------------------------|
G|----6------6-------4------4------------------------------------------------|
D|---------------------------------------------------------------------------|
A|--5------5-------4------4--------------------------------------------------|
E|---------------------------------------------------------------------------|            
Submit corrections


        Things Are Changin lessons Hard to play? Try these video lessons and learn fast Things Are Changin lessons
        
↑ Back to top | Tablatures and chords for acoustic guitar and electric guitar, ukulele, drums are parodies/interpretations of the original songs. You may use it for private study, scholarship, research or language learning purposes only