» » »

Gary Clark Jr - Bright Lights Bass

Artists:  A B C D E F G H I J K L M N O P Q R S T U V W X Y Z # 

Bright Lights Bass

(ver. 1) Click to play this song!
Gary Clark Jr
 Rating:
4/5 (4 votes)

 Bright Lights lessons Tabs too difficult? Try these video lessons and learn fast
 
                -----------------------------------------------------------------------------
                     Bright Lights - Gary Clark Jr.
-----------------------------------------------------------------------------


Tuning: Standard

Intro/Chorus

G|--------------------|
D|--------------------|
A|--------------10-8--|
E|--8-8-8-8-8-8-------|

Verse

G|-----------------|
D|-----------------|
A|-----------10-8--|
E|--8---8-8--------|

Interlude

G|----------------|
D|----------------|
A|-------------8--|
E|--8-8-8-8888----|


| /  slide up
| \  slide down
| h  hammer-on
| p  pull-off
| ~  vibrato
| +  harmonic
| x  Mute note
=============================================================================
            
Submit corrections


        Bright Lights lessons Hard to play? Try these video lessons and learn fast Bright Lights lessons
        
↑ Back to top | Tablatures and chords for acoustic guitar and electric guitar, ukulele, drums are parodies/interpretations of the original songs. You may use it for private study, scholarship, research or language learning purposes only