» » »

Gallows - Will Someone Shoot That Fucking Snake Tabs

Artists:  A B C D E F G H I J K L M N O P Q R S T U V W X Y Z # 

Will Someone Shoot That Fucking Snake Tabs

(ver. 2) Click to play this song!
Gallows
 Rating:
4/5 (4 votes)


 Will Someone Shoot That Fucking Snake lessons Tabs too difficult? Try these video lessons and learn fast
 
                Gallows - Will Someone Shoot That f**king Snake

Drop D

Pieced this together from other tabs filling in missed out sections and correcting it 
my opinion) Enjoi =]

Intro
Guitar 1
e------------------------------------------------------|
B------------------------------------------------------|
G------------------------------------------------------|
D--------7----------7---------7--------7----------7----|
A--9-9-9---8--9-9-9---8-9-9-9----9-9-9---8--9-9-9---8--|
D------------------------------------------------------| x4 (short rest between each repeat)
Guitar 2
e--------------------------------|
B--------------------------------|
G--------------------------------|
D--44-4444-44-4444-00-000-00-3---|
A--44-4444-44-4444-00-000-00-3---|
D--44-4444-44-4444-00-000-00-3---| x2

e--------------------------------|
B--------------------------------|
G--------------------------------|
D--00-0000-00-0000-44-444-44-3---|
A--00-0000-00-0000-44-444-44-3---|
D--00-0000-00-0000-44-444-44-3---| x2
Verse (x2)
Both Guitars
e------------------------xxxx------------------------xx----|
B------------------------xxxx------------------------xx----|
G------------------------xxxx------------------------xx-5--|
D--4-4-4-7-3--4-4-4-7-3--xxxx--4-4-4-7-3--4-4-4-7-3--xx----|
A--4-4-4-7-3--4-4-4-7-3--xxxx--4-4-4-7-3--4-4-4-7-3--xx----|
D--4-4-4-7-3--4-4-4-7-3--xxxx--4-4-4-7-3--4-4-4-7-3--xx----|
Guitar 1 (palm mute open strings only)
e---------------------------------|
B---------------------------------|
G---------------------------------|
D--000-0000-00-00-000-0000-00-22--|
A--000-0000-00-00-000-0000-00-22--|
D--000-0000-00-00-000-0000-00-22--|
Guitar 2
e--------------------------------------------|
B--------------------------------------------|
G--5br-5br-5br-5br-5br--5br-5br-5br-5br-5br--|
D--------------------------------------------|
A--------------------------------------------|
D--------------------------------------------|

Chorus
Guitar 1 (palm muted)                                    (not palm muted)
e--------------------------------------------------------------------|
B--------------------------------------------------------------------|
G--------------------------------------------------------------------|
D--4444444444444444--7777777777777777-44444444444444444--202-22-555--|
A--4444444444444444--7777777777777777-44444444444444444--202-22-555--|
D--4444444444444444--7777777777777777-44444444444444444--202-22-555--|
Guitar 2
e--------------------------------------------------------------------|
B--------------------------------------------------------------------|
G--------------------------------------------------------------------|
D--------------------------------------------------------202-22-555--|
A--------------------------------------------------------202-22-555--|
D--4444444477776644--77777777TTTT9977--4444444477776644--202-22-555--|
Guitar 1
e------------------------------------------------------------------------------------|
B------------------------------------------------------------------------------------|
G------------------------------------------------------------------------------------|
D--444-4-4-4-42------------------444-44-444-44-42--00000000000000000000000000000000--|
A--444-4-4-4-42------------------444-44-444-44-42--00000000000000000000000000000000--| x2
D--444-4-4-4-42------------------444-44-444-44-42--00000000000000000000000000000000--|
Guitar 2         (1st time only)          (1st ..)
e-----------------------------------------------------------------------------------------|
B----------------7-----7-6-5-4------------------------------------------------------------|
G--EEE-E-E-E---------5-----------EEE-E-E-E-FFF-II--77777777/99999999/EEEEEEEE/FFFF/HH/EE--|
D--TTT-T-T-T-------4-------------TTT-T-T-T-HHH-FF-----------------------------------------|

x2 (but dont play the fills)
D-----------------------------------------------------------------------------------------|

Order
Intro
Verse
Chorus
Verse
Chorus (pause after palm muted section)
            
Submit corrections



        Will Someone Shoot That Fucking Snake lessons Hard to play? Try these video lessons and learn fast Will Someone Shoot That Fucking Snake lessons
        
↑ Back to top | Tablatures and chords for acoustic guitar and electric guitar, ukulele, drums are parodies/interpretations of the original songs. You may use it for private study, scholarship, research or language learning purposes only