» » »

Galileo Galilei - Aoi Shiori Tabs

Artists:  A B C D E F G H I J K L M N O P Q R S T U V W X Y Z # 

Aoi Shiori Tabs

(ver. 1) Click to play this song!
Galileo Galilei
 Rating:
4/5 (4 votes)

 Aoi Shiori  lessons Tabs too difficult? Try these video lessons and learn fast
 
                Intro
e|------7-----7----7-----12---------------|
B|---9-----9-----9-------12---------------|
G|----------------------------------------| x2
D|----------------------------------------|
A|----------------------------------------|
E|----------------------------------------|

Verse
e|---------------------------------------------------------------------------|
B|---------------------------------------------------------------------------|
G|---4-------4-4-6-4---------------------------------------------------------|
D|------6--7---------4-4-6-7-6-4-2-4-6-4-4-----------------------------------| x2
A|---------------------------------------------------------------------------|
E|---------------------------------------------------------------------------|

e|---------------------------------------------------------------------------|
B|---------------------------------------------------------------------------|
G|----4-4--------4-6--8-9------------4-6-8-9-8-6-4-2------4------------------|
D|--------6-6--7---------------------------------------6-7---2-2-------------|
A|---------------------------------------------------------------------------|
E|---------------------------------------------------------------------------|

e|-------------------------------------------------------------------------------------|
B|-------------------------4-5-4-5-7-4-----2-4-5-4-2-----------------------------------|
G|-------------------------------------------------------4-2-1-2-4------------4----4---|
D|--2-4-6-7-6-2----2-2------------------------------------------------------2----2-----|
A|-------------------------------------------------------------------------------------|
E|-------------------------------------------------------------------------------------|

e|----------------------------------------------------------------------------------|
B|-------5-4---/2-p0----------------------------------------------------------------|
G|---4-6----------------------------------------------------------------------------|
D|----------------------------------------------------------------------------------|
A|----------------------------------------------------------------------------------|
E|----------------------------------------------------------------------------------| 

e|---------------------------------------------------------------------------|
B|-------------------------------------------7----7----7------12-------------|
G|--1---------1-----2---------------------9-----9----9--------12-------------|
D|-------2---------------4----2-2--------------------------------------------|
A|---------------------------------------------------------------------------|
E|---------------------------------------------------------------------------|            
Submit corrections


        Aoi Shiori  lessons Hard to play? Try these video lessons and learn fast Aoi Shiori  lessons
        
↑ Back to top | Tablatures and chords for acoustic guitar and electric guitar, ukulele, drums are parodies/interpretations of the original songs. You may use it for private study, scholarship, research or language learning purposes only