» » »

Galileo Galilei - Aoi Shiori Bass

Artists:  A B C D E F G H I J K L M N O P Q R S T U V W X Y Z # 

Aoi Shiori Bass

(ver. 1) Click to play this song!
Galileo Galilei
 Rating:
4.3/5 (26 votes)

 Aoi Shiori  lessons Tabs too difficult? Try these video lessons and learn fast
 
                Tuning:EADG


[Verse]

G|---------------------------------------------------------------------------|
D|---------------------------------------------------------------------------|
A|7~-------7~----------------------------------------------------------------| 
E|---------------------------------------------------------------------------|

G|---------------------------------------------------------------------------|
D|---------------------------------------------------------------------------|
A|---------------------------------------------------------------------------| (2x)
E|00000000-77777777-22222222-55555555----------------------------------------|

G|---------------------------------------------------------------------------|
D|---------------------------------------------------------------------------|
A|---------------------------------------------------------------------------| (2x)
E|0~-------7~-------2~-------5~----------------------------------------------|

G|---------------------------------------------------------------------------|
D|---------------------------------------------------------------------------|
A|---------------------------------------------------------------------------| (2x)
E|00000000-77777777-22222222-55555555----------------------------------------|


[Pre-Chorus]

G|---------------------------------------------------------------------------|
D|---------------------------------------------------------------------------|
A|-----776------7777--------------776-----776------7777----------------------|
E|4444----7-9999-----5555-7777-000---7-444---7-9999--------------------------|

G|---------------------------------------------------------------------------|
D|--------------------------------------14-----------------------------------|
A|-----------------14141414-12121212--14--1414141414-------------------------|
E|5555555555555557------------------12---------------------------------------|


[Chorus]

G|------------------------------------------------------------------------------------------------|
D|------------------------------------------------------------------------------------------------|
A|------------------------------------------------------------------------------------------------|
E|00000000-77777777-22222222-1212121212121212-11-11-11-11-11-11-11-11-999-5555-22222222-55555555--|

G|--------------------------------------------------------------------------------|
D|--------------------------------------------------------------------------------|
A|--------------------------------------------------------------------------------|
E|11-11-11-11-14141414-77777777-1212121212121212-11-11-11-77777777----------------|

G|---------------------------------------------------------------------------|
D|---------------------------------------------------------------------------|
A|------------------------------------7~-------7~----------------------------|
E|55555555-44444444-22222222-77777777----------------------------------------|


[Verse]

G|---------------------------------------------------------------------------|
D|---------------------------------------------------------------------------|
A|---------------------------------------------------------------------------| (4x)
E|00000000-77777777-22222222-55555555----------------------------------------|

G|---------------------------------------------------------------------------|
D|---------------------------------------------------------------------------|
A|---------------------------------------------------------------------------|
E|99999999-1212121212121212-1414141414141414-5555-7788-----------------------|

G|------------------------------------------------------------------------------------------|
D|------------------------------------------------------------------------------------------|
A|------------------------------------------------------------------------------------------|
E|99999999-1212121212121212-1414141414141414-5555-7788-55555555-44444444-22222222-77777777--|

G|---------------------------------------------------------------------------|
D|---------------------------------------------------------------------------|
A|---------------------------------------------------------------------------| (6x)
E|0000000000000000-----------------------------------------------------------|

G|----------------------------------------------------------------------------------|
D|----------------------------------------------------------------------------------|
A|----------------------------------------------------------------------------------|
E|1212121212121212-777777777-99999999-55555555-00000000-77777777-22222222-55555555--|


[Pre-Chorus]

G|---------------------------------------------------------------------------|
D|---------------------------------------------------------------------------|
A|-----776------7777---------------776------776------7777--------------------|
E|4444----7-9999-----5555-7777-000----7-4444---7-9999----5555555555555557----|

G|---------------------------------------------------------------------------|
D|----------------------14---------------------------------------------------|
A|14141414-12121212---14--1414141414-----------------------------------------|
E|------------------12-------------------------------------------------------|


[Chorus]

G|----------------------------------------------------------------------------------|
D|----------------------------------------------------------------------------------|
A|----------------------------------------------------------------------------------|
E|00000000-77777777-22222222-1212121212121212-11-11-11-11-11-11-11-11-999-5555555---|

G|----------------------------------------------------------------------------------|
D|----------------------------------------------------------------------------------|
A|----------------------------------------------------------------------------------|
E|22222222-55555555-11-11-11-11-14141414-77777777-1212121212121212-11-11-11-77777---|

G|---------------------------------------------------------------------------|
D|---------------------------------------------------------------------------|
A|---------------------------------------------------------------------------|
E|55555555-44444444-22222222-77777777-00000000-77777777-22222222-------------|

G|----------------------------------------------------------------------------------|
D|----------------------------------------------------------------------------------|
A|----------------------------------------------------------------------------------|
E|1212121212121212-11-11-11-11-11-11-11-11-77777777-55555555-22222222-55555555------|

G|---------------------------------------------------------------------------------------------------|
D|---------------------------------------------------------------------------------------------------|
A|---------------------------------------------------------------------------------------------------|
E|11-11-11-11-14141414-77777777-1212121212121212-11-11-11-77777-55555555-44444444-22222222-77777777--|


[End]

G|---------------------------------------------------------------------------|
D|---------------------------------------------------------------------------|
A|---------------------------------------------------------------------------| (6x)
E|00000000-77777777-22222222-55555555----------------------------------------|            
Submit corrections


        Aoi Shiori  lessons Hard to play? Try these video lessons and learn fast Aoi Shiori  lessons
        
↑ Back to top | Tablatures and chords for acoustic guitar and electric guitar, ukulele, drums are parodies/interpretations of the original songs. You may use it for private study, scholarship, research or language learning purposes only