» » »

Funeral For A Friend - Streetcar Tabs

Artists:  A B C D E F G H I J K L M N O P Q R S T U V W X Y Z # 

Streetcar Tabs

(ver. 2) Click to play this song!
Funeral For A Friend
 Rating:
4/5 (4 votes)

 Streetcar lessons Tabs too difficult? Try these video lessons and learn fast
 
                
Hey, i thought i'd tab this because i couldnt find a tab for it anywhere! im the first 
totally wrong so please dont expect anything brilliant!

/ = slide up
. = P.M (palm mute)

Tuning (typical ffaf tuning) dropped D + down half a step DbAbDbGBBbeb

Intro - rhythm (00:05 - 00:16)
(enters after phone ringing)

Eb-----------------------------------------------------|
Bb-----------------------------------------------------|
Gb-----------------------------------------------------|
Db----4-444/55-5--55-5--55-5--55-5--55-5--55-5--55-5---|
Ab----4-444/55-5--55-5--55-5--55-5--55-5--55-5--55-5---|
Db----4-444/55-5--55-5--55-5--55-5--55-5--55-5--55-5---|
      . ...... .  .. .  .. .  .. .  .. .  .. .  .. .

Eb-----------------------------------------------------|
Bb-----------------------------------------------------|
Gb-----------------------------------------------------|
Db----0-000--00-0--00-0--00-0--00-0--00-0--00-0--00-0--|
Ab----0-000--00-0--00-0--00-0--00-0--00-0--00-0--00-0--|
Db----0-000--00-0--00-0--00-0--00-0--00-0--00-0--00-0--|
      . ...  .. .  .. .  .. .  .. .  .. .  .. .  .. .

Verse - rhythm (00:16 - 00:38)

Eb-----------------------------------------------------|
Bb-----------------------------------------------------|
Gb-----------------------------------------------------|
Db----4-444/55-5--55-5--55-5--55-5--55-5--55-5--55-5---|
Ab----4-444/55-5--55-5--55-5--55-5--55-5--55-5--55-5---|
Db----4-444/55-5--55-5--55-5--55-5--55-5--55-5--55-5---|
                                                           x2
Eb-----------------------------------------------------|
Bb-----------------------------------------------------|
Gb-----------------------------------------------------|
Db----0-000--00-0--00-0--00-0--00-0--00-0--00-0--00-0--|
Ab----0-000--00-0--00-0--00-0--00-0--00-0--00-0--00-0--|
Db----0-000--00-0--00-0--00-0--00-0--00-0--00-0--00-0--|

I havent worked out the lead for the verse yet.

Chorus - rhythm (00:39 - 1:00)
(chords strummed quickly)
Eb-------------------------|
Bb-------------------------|
Gb-------------------------|
Db----9------7------5------|   x2
Ab----9-x16--7-x16--5-x32--|
Db----9------7------5------|

Chorus - Lead (00:38 - 1:00)
(i think bits of this are tapped on e.t.c, but this is a simplified version)
Eb-----------------------------------------------15-14-12-----15-14-12----|
Bb----14--------------------14----------------------------15----------15--|
Gb--------14-12-11-12-11-------14-12-11-12-11-----------------------------|
Db------------------------------------------------------------------------|
Ab------------------------------------------------------------------------|
Db------------------------------------------------------------------------|

Verse - rhythm (1:00 - 1:22)

Eb-----------------------------------------------------|
Bb-----------------------------------------------------|
Gb-----------------------------------------------------|
Db----4-444/55-5--55-5--55-5--55-5--55-5--55-5--55-5---|
Ab----4-444/55-5--55-5--55-5--55-5--55-5--55-5--55-5---|
Db----4-444/55-5--55-5--55-5--55-5--55-5--55-5--55-5---|
                                                           x2
Eb-----------------------------------------------------|
Bb-----------------------------------------------------|
Gb-----------------------------------------------------|
Db----0-000--00-0--00-0--00-0--00-0--00-0--00-0--00-0--|
Ab----0-000--00-0--00-0--00-0--00-0--00-0--00-0--00-0--|
Db----0-000--00-0--00-0--00-0--00-0--00-0--00-0--00-0--|

Chorus - rhythm (1:23 - 2:06)
(chords strummed quickly)
Eb-------------------------|
Bb-------------------------|
Gb-------------------------|
Db----9------7------5------|   x4
Ab----9-x16--7-x16--5-x32--|
Db----9------7------5------|

Chorus - Lead (1:23 - 2:06)
(i think bits of this are tapped on e.t.c, but this is a simplified version)
Eb-----------------------------------------------15-14-12-----15-14-12----|
Bb----14--------------------14----------------------------15----------15--|
Gb--------14-12-11-12-11-------14-12-11-12-11-----------------------------|
Db------------------------------------------------------------------------|x2
Ab------------------------------------------------------------------------|
Db------------------------------------------------------------------------|

Interlude - Bass (2:06 - 2:20)

Gb--------------------------------------------------------------------------|
Db--------------------------------------------------------------------------|
Ab--------------------------------------------------------------------------|
Db----9999999999999999-7777777777777777-5555555555555555-4444444444444/5/7--|

Interlude - Rhythm (2:20 - 3:00)

Eb--------------------------------------------------------------------------|
Bb--------------------------------------------------------------------------|
Gb--------------------------------------------------------------------------|
Db----9999999999999999-7777777777777777-5555555555555555-4444444444444/5/7--|
Ab----9999999999999999-7777777777777777-5555555555555555-4444444444444/5/7--|
Db----9999999999999999-7777777777777777-5555555555555555-4444444444444/5/7--|

Interlude - Lead (2:20 - 3:00)

Eb------------------------------------|
Bb------------------------------------|
Gb------------------------------------|
Db----999999-101010101010-12121212----| play until end
Ab------------------------------------|
Db------------------------------------|

Any corrections would be greatly appreciated and like i said, ive only done this because 
couldnt find a tab myself! good luck....lloyd
            
Submit corrections


        Streetcar lessons Hard to play? Try these video lessons and learn fast Streetcar lessons
        
↑ Back to top | Tablatures and chords for acoustic guitar and electric guitar, ukulele, drums are parodies/interpretations of the original songs. You may use it for private study, scholarship, research or language learning purposes only