» » »

Funeral For A Friend - Building Tabs

Artists:  A B C D E F G H I J K L M N O P Q R S T U V W X Y Z # 

Building Tabs

(ver. 2) Click to play this song!
Funeral For A Friend
 Rating:
4.2/5 (5 votes)

 Building lessons Tabs too difficult? Try these video lessons and learn fast
 
                Building by Funeral For A Friend

this was tabbed from a video of them playing this acoustic in Poland so im pretty sure its right.
Here's the link if you want to look at the video. It might help: 

=Intro=

|-------------------------------------------------2-------------------|
|--------5---------------5----------------5---------------4-----------|
|----6-------6---6---6-------6---6----4-------4-------4-------4---4---|
|--6---6---6---6---7---7---7---7----4---4---4---4---4---4---4---4-----|
|---------------------------------------------------------------------|
|---------------------------------------------------------------------|


|-------------------------------------------------2---|
|--------5---------------5----------------5-----------|
|----6-------6---6---6-------6---6----4-------4-------|
|--6---6---6---6---7---7---7---7----4---4---4---4-----|
|-----------------------------------------------------|
|-----------------------------------------------------|


=Verse=

|--------0---------------0---------------0---------------------------|
|----------------0---0-----------0---------------4-------0-----------|
|----6-------------------------------4-------4-------4-------4---4---|
|------------6/7-------------6/7-------------------------------------|      X3
|--------------------------------------------------------------------|
|--4---4---4-------5---5---5-------2---2---2---2---2---2---2---2-----|


|------------------------------------------------------|
|--------4-------5-------0-------0-------4-------5-----|
|----4-------4-------4-------4-------4-------4---------|
|------------------------------------------------------|
|--0---0---0---0---0---0---0---0---0---0---0---0-------|
|------------------------------------------------------|


=Chorus=

|---0-0-00000-0-00000-0-00000-0-00-0-0-00000-0-00-0-0-00000-0-------|
|---0-0-00000-0-00000-0-00000-0-00-0-0-00000-0-00-0-0-00000-0-------|
|---4-4-44466-6-66699-9-99999-9-99-8-8-88888-8-88-2-2-22222-2-------|
|---4-4-44466-6-66699-9-99999-9-99-9-9-99999-9-99-2-2-22222-2-------|
|---2-2-22244-4-44477-7-77777-7-77-6-6-66666-6-66-0-0-00000-0-------|
|-------------------------------------------------------------------|

|---0-0-00000-0-00000-0-00000-0-00-0-0-00000-0-00-00-0----|
|---0-0-00000-0-00000-0-00000-0-00-0-0-00000-0-00-00-0----|
|---4-4-44466-6-66699-9-99999-9-99-8-8-88888-8-88-22-2----|
|---4-4-44466-6-66699-9-99999-9-99-9-9-99999-9-99-22-2----|
|---2-2-22244-4-44477-7-77777-7-77-6-6-66666-6-66-00-0----|
|---------------------------------------------------------|


Repeat for Second Verse and next two choruses.
            
Submit corrections


        Building lessons Hard to play? Try these video lessons and learn fast Building lessons
        
↑ Back to top | Tablatures and chords for acoustic guitar and electric guitar, ukulele, drums are parodies/interpretations of the original songs. You may use it for private study, scholarship, research or language learning purposes only