» » »

Fuel - Won't Back Down Tabs

Artists:  A B C D E F G H I J K L M N O P Q R S T U V W X Y Z # 

Won't Back Down Tabs

(ver. 2) Click to play this song!
Fuel
 Rating:
4/5 (4 votes)


 Won't Back Down lessons Tabs too difficult? Try these video lessons and learn fast
 
                ********************************************
                ***                                      ***
                ***                FUEL                  ***
                ***            Wont Back Down            ***
                ***          DareDevil Soundrack         ***
                ********************************************

   Hey,this is Fuels latest single off the Daredevil soundtrack
i dont know if this is the real tuning but it sounds really good
(C-G-C-F-A-D)rate this tab!!

Intro(not correct amount of strumming for 2nd part)
D-------------------------------------------
A-------------------------------------------
F-------------------------------------------
C-------------------------------------------
G-1-0-1-0-1-0-1-0-0-0-1-0-0-0---------------
C-1-0-1-0-1-0-1-0-0-0-1-0-0-0-17/slide back-

D-------------------------------------------------------------
A-------------------------------------------------------------
F-------------------------------------------------------------
C-------------------------------------------------------------
G-0-0-0-0-10-8-8-8-8-10-10-10-10-5-5-x-x-x-x-x-5-5-x-x-x-5-5-3
C-0-0-0-0-10-8-8-8-8-10-10-10-10-5-5-x-x-x-x-x-5-5-x-x-x-5-5-3

Verse(not sure)
P.M...............................
D----------------------------------------------
A---------------------------------------------
F---------------------------------------------
C-7-7-7-7------5-5-5--------------------------
G-5-5-5-5--8-8-3-3-3-9-9-9-8-8-8-8------------
C----------8-8-------9-9-9-8-8-8-8-4-4-7-6-4-3

Pre-Chorus
D--------------
A--------------
F--------------
C--------------
G--------------
C-17/slide back

Chorus
D-----------------------------------------------
A-----------------------------------------------
F-----------------------------------------------
C-----------------------------------------------
G-0-0-0-0-10-8-8-8-8-10-10-10-10-5-5--5-5--5-5-3
C-0-0-0-0-10-8-8-8-8-10-10-10-10-5-5--5-5--5-5-3

Verse 2(same as Verse 1)
Chorus 2(same as Chorus 1)

Breakdown                                          (x2) then this \/
D------------------------------------------------------  D---------------
A------------------------------------------------------  A---------------
F---------------------10-10-10-10-10-10-5-5-12-12-12-12  F-10-10-12-12-12
C----------------------x-x---x--x--x--x-x-x--x--x--x--x- C-x--x--x--x--x
G-5-5-5-5-5-5-5-7------8-8---8--8--8--8-3-3-10-10-10-10  G-8--8--10-10-10
C-5-5-5-5-5-5-5-7-------                                 C---------------
 /part of 2nd chorus\(x1)
/that goes to breakdown\

D---------------------------------------------------------------
A---------------------------------------------------------------
F---------------------------------------------------------------
C---------------------------------------------------------------
G-1-0-1-0-1-0-1-0-1-0-1-0-1-0-1-0-10-0-0-0-0-10-10-0-0-0-0-10-10
C-1-0-1-0-1-0-1-0-1-0-1-0-1-0-1-0-10-0-0-0-0-10-10-0-0-0-0-10-10

Chorus 3(same as chorus 1 and 2)

"I'v come to bring you hell"...
D----------
A----------
F----------
C----------  (x4)
G-0-0-8-8-8
C-0-0-8-8-8

Well,that's bout it rate this tab cuz it took a long time
to do..and if any corrections click the correct tab
button the top..thanks
            
Submit corrections



        Won't Back Down lessons Hard to play? Try these video lessons and learn fast Won't Back Down lessons
        
↑ Back to top | Tablatures and chords for acoustic guitar and electric guitar, ukulele, drums are parodies/interpretations of the original songs. You may use it for private study, scholarship, research or language learning purposes only