» » »

Fuel - Won't Back Down Tabs

Artists:  A B C D E F G H I J K L M N O P Q R S T U V W X Y Z # 

Won't Back Down Tabs

(ver. 1) Click to play this song!
Fuel
 Rating:
4/5 (4 votes)


 Won't Back Down lessons Tabs too difficult? Try these video lessons and learn fast
 
                PROPS GO TO: Tim Maxwell

Fuel
Daredevil The Album
Words and Music by Carl Bell

Tuned down 1 whole step w/dropped-D tuning:

(Low to high:) CGCFAD    
(you can just tune the bottom 3 strings down a whole step because those are the only ones you use)
CHORDS:
Eb5: 111XXX  D5: 000XXX  C5: 10-10-10-X-X-X  Bb5(9): 8-8-10-X-X-X  C5(9): 10-10-12-X-X-X
G5: 555XXX  Bb5: 888XXX  F/A: 78XXXX
ALL LYRICS MAY NOT BE CORRECT; THESE LYRICS WERE SEEN FROM MY VIEW OF THE SONG
Intro:
  synth.          Eb5/D5            Eb5/D5            Eb5/D5
|----------------|-----------------|-----------------|-----------------|
|----------------|-----------------|-----------------|-----------------|
|----------------|-----------------|-----------------|-----------------|
|----------------|-----------------|-----------------|-----------------|
|----------------|--1-0------------|--1-0------------|--1-0------------|
|----------------|--1-0------------|--1-0------------|--1-0------------|
                  (elec. gtr. w/dist.)

Eb5/D5       Eb5/D5              D5               C5     Bb5(9)
|-----------------------------|-----------------------|-----------------------|
|-----------------------------|-----------------------|-----------------------|
|-----------------------------|-----------------------|-----------------------|
|-----------------------------|--0--0-0--0----0-0-10--|--10-1010-10---1010-10-|
|-1-0--0----0-1-0----0--/12\--|--0--0-0--0----0-0-10--|--8--8-8--8----8-8--8--|
|-1-0--0----0-1-0----0--/12\--|--0--0-0--0----0-0-10--|--8--8-8--8----8-8--8--|

  C5(9)                           G5
|------------------------------|-----------------------------|
|------------------------------|-----------------------------|
|------------------------------|-----------------------------|
|--12--12-12--12----12-12--12--|--5-5--------5-5-------------|
|--10--10-10--10----10-10--10--|--5-5--------5-5-------------|
|--10--10-10--10----10-10--10--|--5-5--------5-5----5--5-3~--|

Verse 1: (First set of chords is synth. effects, the 2nd set is Palm Muted Chords)
[D5]       [C(9)]   [Bb5)   
I know what darkness means (and the figure I believe)
[D5]  [C(9)] [Bb5(9)]
The isolation stings (I think it walk complete)
D5         C5(9)  Bb5(9)
The echoes in the brain (---)
D5          C5(9) Bb5(9)
You took my everything (now you're going down)

Chorus:
D5      Bb5(9)       C5(9)       G5
I won't back down, I will not bow (I come to bring you hell)
D5      Bb5(9)           C5(9)        G5
I won't fake to you, the things you do (I come to bring you hell)

Verse 2:
[D5]        [C5(9)] [Bb5(9)]
The shadows that you see (blistering the scene)
[D5]   [C5(9)] [Bb5(9)]
Are memories of me, (in spite a cries it sings)
D5           C5(9)    Bb5(9) 
The truth behind your eyes (lost everything)
D5           C5(9)  Bb5(9)         
Your darkest little lies (aren't gonna stand)

Chorus

Bridge:
Bb5     F/A        C5    Bb5
All the scars that never heal
        F/A          C5       Bb5
All the bruises that build no tears
       F/A    C5      Bb5
I will not forget the day
               G5
You spent your every fall, yeah
Interlude:
     Eb5/D5    Eb5/D5    Eb5/D5   Eb5/D5    Eb5/D5    Eb5/D5    EB5/D5 EB5/D5 EB5/D5
yeah__________

   D5         C5     D5         C5
|-----------------|-----------------|
|-----------------|-----------------|
|-----------------|-----------------|
|--0--0-0--0-/10--|--0--0-0--0-/10--|
|--0--0-0--0-/10--|--0--0-0--0-/10--|
|--0--0-0--0-/10--|--0--0-0--0-/10--|  PLAY 2 TIMES

Chorus

Outro:
D5                   Bb5(9)
We come to bring you hell (we come to bring you hell)  4 TIMES

--BY TIMOTHY MAXWELL--
HANG TIGHT FUEL FANS, FUEL IS WORKING ON THEIR NEXT RECORD, KEEP CHECKING FUELWEB.COM
            
Submit corrections



        Won't Back Down lessons Hard to play? Try these video lessons and learn fast Won't Back Down lessons
        
↑ Back to top | Tablatures and chords for acoustic guitar and electric guitar, ukulele, drums are parodies/interpretations of the original songs. You may use it for private study, scholarship, research or language learning purposes only