Home » F » Fuel »

Fuel - Wasted Time Tabs

Artists:  A B C D E F G H I J K L M N O P Q R S T U V W X Y Z # 

Wasted Time Tabs

(ver. 2) Click to play this song!
Fuel
 Rating:
4/5 (4 votes)
                Wasted time - Fuel

hey guys, this tab is kinda rough but the chords are right. the leads are rough but they 
get you started. your going to have to listen to the song for timing and stuff like that.



Gtr I (E A D G B E)
Gtr II (E A D G B E)

    Gtr I
 intro/verse
||-----2--2-2-2-2-2-2-|----2-2-2-2-2-2-2--||----|
||o----2--2-2-2-2-2-2-|----3-3-3-3-3-3-3-o||----|
||-----2--2-2-2-2-2-2-|-2--2-2-2-2-2-2-2--||----|
||--4--4--4-4-4-4-4-4-|-0--0-0-0-0-0-0-0--||----|
||o-4--4--4-4-4-4-4-4-|------------------o||----|
||--2--2--2-2-2-2-2-2-|-------------------||----|

   gtr 1 verse(continued)                           4x   pre chorus
||---------2--2-2-2-2-2-2-|--------2--2-2-2-2-2-2--||-|------------------|
||o--------2--2-2-2-2-2-2-|--------3--3-3-3-3-3-3-o||-|------------------|
||---------2--2-2-2-2-2-2-|--2-----2--2-2-2-2-2-2--||-|--9-9-9-9-9-9-9-9-|
||---4-----4--4-4-4-4-4-4-|--0-----0--0-0-0-0-0-0--||-|--9-9-9-9-9-9-9-9-|
||o--4-----4--4-4-4-4-4-4-|-----------------------o||-|--7-7-7-7-7-7-7-7-|
||---2-----2--2-2-2-2-2-2-|------------------------||-|------------------|

Gtr 2   verse  (listen for timeing)                pre chorus
||------------14------14--|---------14------14--16-||-|-16---------------|--|
||o-------14------14------|-----14------14--------o||-|------------------|--|
||------------------------|------------------------||-|------------------|--|
||------------------------|------------------------||-|------------------|--|
||o-----------------------|-----------------------o||-|------------------|--|
||------------------------|------------------------||-|------------------|--|


pre chorus (continued)
  PM----|
  E E E E H
|--------------|
|--------------|
|-7-7-7-7------|
|-7-7-7-7------|
|-5-5-5-5------|
|--------------|


gtr 1 and 2 chorus

                                                        x2
||------------------------------------------------------||
||o----------------------------------------------------o||
||------------------------------------------9--9--7-----||
||--7-7-7-7-7-7-7-7--2-2-2-2-2-2-2-2--4--4--9--9--7-----||
||o-7-7-7-7-7-7-7-7--2-2-2-2-2-2-2-2--4--4--7--7--5----o||
||--5-5-5-5-5-5-5-5--0-0-0-0-0-0-0-0--2--2--------------||

  bridge                               4x
||------------------|------------------||----------|
||o-----------------|-----------------o||----------|
||--9-9-9-9-9-9-9-9-|-7-7-7-7-7-7-7-7--||-------7--|
||--9-9-9-9-9-9-9-9-|-7-7-7-7-7-7-7-7--||-4--2--7--|
||o-7-7-7-7-7-7-7-7-|-5-5-5-5-5-5-5-5-o||-4--2--5--|
||------------------|------------------||-2--0-----|

  acoustic chorus
||--0----------------0----------------------------2-----||
||o-0----------------0----------------------------3-----||
||--2----------------1----------------------9-----2-----||
||--2----------------2----------------4-----9-----0-----||
||o-0----------------2----------------4-----7----------o||
||-------------------0----------------2-----------------||

gtr 2 play this with chorus at the end of the song (listen for timing)
|------------|
|------------|
|------------|
|------------|
|-----4-7----|
|-5-7--------|

outro

|-------------|---------|
|-------------|---------|
|-------9--9--|-7--7----|
|-4--4--9--9--|-7--7----|
|-4--4--7--7--|-5--5----|
|-2--2--------|---------|
            
Submit corrections

↑ Back to top | Tablatures and chords for acoustic guitar and electric guitar, ukulele, drums are parodies/interpretations of the original songs. You may use it for private study, scholarship, research or language learning purposes only