» » »

Fuel - Wasted Time Tabs

Artists:  A B C D E F G H I J K L M N O P Q R S T U V W X Y Z # 

Wasted Time Tabs

(ver. 1) Click to play this song!
Fuel
 Rating:
4/5 (4 votes)

 Wasted Time lessons Tabs too difficult? Try these video lessons and learn fast
 
                -------------------------------------------------------------------------------
                             Wasted Life Acoustic - Fuel
-------------------------------------------------------------------------------

Note:  Okay I'm going by the vid I saw off of youttube of just  Carl Bell & Toryn Green 
everything should be correct, if not, watch the vid and correct yourself.  The links 
So enjoy!

Tuning: EADGBe

Intro/Verse        Pre-Chorus

  4x   3x   8x    3x   6x    3x
e|-----------------||-|-0-----0--|
B|-7----7----7----o||-|-0-----0--|
G|-6----6----6-----||-|-9-----7--|
D|-4----0----4-----||-|-9-----7--|
A|-x----4----5----o||-|-7-----5--|
E|-5----5----0-----||-|-0-----0--|

Chorus

  6x   6x   3x   3x   6x   2x
e|-0----0----2----0----0----||
B|-0----0----2----0----3---o||
G|-2----1----2----1----2----||
D|-2----2----4----2----0----||
A|-0----2----4----2----0---o||
E|-0----0----2----0----0----||

Bridge

  6x   8x   3x   3x   3x   6x
e|-0----0----||-|-2----0----0-|
B|-0----3---o||-|-2----0----3-|
G|-1----2----||-|-2----1----2-|
D|-2----0----||-|-4----2----0-|
A|-2----0---o||-|-4----2----0-|
E|-0----0----||-|-2----0----0-|

Outro Chorus

  3x   3x   6x  4x
e|-2----0----0---||
B|-2----0----2--0||
G|-2----1----3---||
D|-4----2----0---||
A|-4----2----0--0||
E|-2----0----0---||


Pattern:
Verse 3x
Pre-Chorus
Chorus 2x
Verse 3x
Pre-Chorus
Chorus 2x
Bridge 3x
Chorus 7x
Outro 4x

Lyrics:

Say it to my face
Look me in the eyes
And say what you have to say
You know we can't erase these words before goodbye
And turn the final page

Ahh here comes alone again

Everything's broken
Everything's vacant
Everything's wasted time again
Sentiments hopeless
Innocence jaded
Everything's wasted time again

And so we leave this stage
And all our best read lines
And all the acts we played
So say you wanna leave
And say we never held the way we always hoped we'd try

And say hello to alone again

'Cause, everything's broken
Everything's vacant
Everything's wasted time again
Sentiments hopeless
Innocence jaded
Everything's wasted time again

Ahh someday we might find
Some sacred place in time
But until then all we'll share
Are dreams we've left behind

'Cause everything's broken
Everything's vacant
Everything's wasted time again

Ahh, yeah!

Everything's broken
Everything's vacant
Everything's wasted time again
Sentiments hopeless
Innocence jaded
Everything's wasted time again
Everything's broken
Everything's vacant
Everything's wasted time again
Sentiments hopeless
Innocence jaded
Everything's wasted time again

Everything is broken
Everything is wasted time
Everything is broken
Everything is wasted time
            
Submit corrections


        Wasted Time lessons Hard to play? Try these video lessons and learn fast Wasted Time lessons
        
↑ Back to top | Tablatures and chords for acoustic guitar and electric guitar, ukulele, drums are parodies/interpretations of the original songs. You may use it for private study, scholarship, research or language learning purposes only