Home » F » Freezepop »

Freezepop - Less Talk More Rokk Tabs

Artists:  A B C D E F G H I J K L M N O P Q R S T U V W X Y Z # 

Less Talk More Rokk Tabs

(ver. 1) Click to play this song!
Freezepop
-------------------

Standard tuning


===============================================

Riff A:
-------------------------------|
-------------------------3-----|
-----------------2---2-5-------|
-------2-4-2-4-5---5-----------|
-5-3-5-------------------------|
-------------------------------|
                                    (Played 7 times for intro)
-------------------------------|
-------------------------3-5-3-|
-----------------2---2-5-------|
-------2-4-2-4-5---5-----------|
-5-3-5-------------------------|
-------------------------------|
===============================================

Riff B:
-------------------------------|
-------------------------3-----|
-----------------2---2-5-------|
-------2-3-2-3-5---5-----------|
-5-3-5-------------------------|
-------------------------------|

-------------------------------|
-------------------------3-5-3-|
-----------------2---2-5-------|
-------2-3-2-3-5---5-----------|
-5-3-5-------------------------|
-------------------------------|
===============================================

Play riff A again (once)

Play riff B again (once)

===============================================

Riff C:  (In parenthesis are notes played by a second instrument, if you're up to it)
-------------------------------|
----------------------(6-5-3)--|
-------------------------------|
-------------------------------|  x 2
-5---5---3---5---3-5-----------|
-------------------------------|

-------------------------------|
----------------------(6-5-3)--|
-------------------------------|
-----------------7-------------|
-5---5---3---5-----5-----------|
-------------------------------|

-------------------------------|
----------------------(6-5-3)--|
-------------------------------|
-------------------------------|
-5---5---3---5---3-5-----------|
-------------------------------|

-------------------------------|
----------------------(4-3-1)--|
-------------------------------|
-------------------------------|  x 3
-3---3---1---3---1-3-----------|
-------------------------------|

-------------------------------|
-------------------------------|
-------------------------------|
--------------------5----0-----|
-3---3---1-3---1-3-------------|
-------------------------------|

-------------------------------|
----------------------(6-5-3)--|
-------------------------------|
-------------------------------|
-5---5---3---5---3-5-----------|
-------------------------------|

-------------------------------|
----------------------(6-5-3)--|
-------------------------------|
-----------------7-------------|
-5---5---3---5-----5-----------|
-------------------------------|

-------------------------------|
----------------------(6-5-3)--|
-------------------------------|
-------------------------------|
-5---5---3---5---3-5-----------|
-------------------------------|

-------------------------------|
----------------------(6-5-3)--|
-------------------------------|
-----------------3-------------|
-5---5---3---5-----5-----------|
-------------------------------|

-------------------------------|
----------------------(4-3-1)--|
-------------------------------|
-------------------------------|  x 3
-3---3---1---3---1-3-----------|
-------------------------------|

-------------------------------|
-------------------------------|
-------------------------------|
-------------------------------|
-3---3---1---3-1---------1-----|
-----------------3---3---------|

===============================================

Riff D:
-------------------------------|
-------------------------3-----|
-----------------2---2-5-------|
-------2-4-2-4-5---5-----------|
-5-3-5-------------------------|
-------------------------------|

-------------------------------|
-------------------------3-5-3-|
-----------------2---2-5-------|
-------2-4-2-4-5---5-----------|
-5-3-5-------------------------|
-------------------------------|
                                      x 5
-------------------------------|
-------------------------------|
-5-3-5-3-------3-------3-5-----|
---------5-3-5---2-3-5---------|
-------------------------------|
-------------------------------|

--------------------------------|
-------------------------3-5-3--|
-----0-2-0-4-0-5-0-2-4-5--------|
-5-0----------------------------|
--------------------------------|
--------------------------------|
==================================================

Play this section twice:
-------------------------------|
-----------5h6--5--------------|
-----5-------------5-----------|
-7------7------------5----7----|  x 2
-------------------------------|
-------------------------------|

----------------------------------------------|
----------5h6--8--6--5-----6--5---------------|
----5-------------------5--------5------------|
-7-----7----------------------------8--7~~~---|
----------------------------------------------|
----------------------------------------------|
===================================================

Play riff D four times

Play all of riff C

Play riff D four times

===================================================

Play four times:
-------------------------------|
-------------------------3-----|
-----------------2---2-5-------|
-------2-4-2-4-5---5-----------|  x 2
-5-3-5-------------------------|
-------------------------------|

-------------------------------|
-------------------------3-5-3-|
-----------------2---2-5-------|
-------2-4-2-4-5---5-----------|  x 2
-5-3-5-------------------------|
-------------------------------|
===================================================
That's it
            
Submit corrections

↑ Back to top | Tablatures and chords for acoustic guitar and electric guitar, ukulele, drums are parodies/interpretations of the original songs. You may use it for private study, scholarship, research or language learning purposes only