» » »

Free - Walking In My Shadow Bass

Artists:  A B C D E F G H I J K L M N O P Q R S T U V W X Y Z # 

Walking In My Shadow Bass

(ver. 1) Click to play this song!
Free
 Rating:
4/5 (4 votes)

 Walking In My Shadow lessons Tabs too difficult? Try these video lessons and learn fast
 
                G|-----------------------
D|------5-5------3-------	Repeat four times.
A|----------3-h5---1-3---
E|--3-3------------------

G|------5-5------3-------
D|----------3-h5---1-3---	Repeat twice.
A|--3-3------------------
E|-----------------------

G|-----------------------
D|------5-5------3-------	Repeat this twice again.
A|----------3-h5---1-3---
E|--3-3------------------

G|------7-7------5-------
D|----------5-h7---3-5---	Play just the once.
A|--5-5------------------
E|-----------------------

G|------5-5------3-------
D|----------3-h5---1-3---	Then play this the once.
A|--3-3------------------
E|-----------------------

G|-----------------------
D|------5-5------3-------	And then this just the once.
A|----------3-h5---1-3---
E|--3-3------------------

G|-----------------------
D|-----------------------	Then play the turnaround (sliding down).
A|--555-333-222-111------
E|-----------------------            
Submit corrections


        Walking In My Shadow lessons Hard to play? Try these video lessons and learn fast Walking In My Shadow lessons
        
↑ Back to top | Tablatures and chords for acoustic guitar and electric guitar, ukulele, drums are parodies/interpretations of the original songs. You may use it for private study, scholarship, research or language learning purposes only