» » »

Free - Trouble On Double Time Live Tabs

Artists:  A B C D E F G H I J K L M N O P Q R S T U V W X Y Z # 

Trouble On Double Time Live Tabs

(ver. 1) Click to play this song!
Free
 Rating:
4.8/5 (20 votes)

 Trouble On Double Time Live  lessons Tabs too difficult? Try these video lessons and learn fast
 
                Tuning: EADGBe

  E7#9                                                       PM----------|
E|------3------------|------3-----------|------3------------|------------------|
B|------3------------|------3-----------|------3------------|------------------|
G|--1----------------|--1---------------|--1----------------|--1---2---3---4/9\|
D|----2----5b6-2p0---|----2-------2p0---|----2----5b6-2p0---|2---2---2---2-----|
A|-------------------|------------------|-------------------|------------------|
E|0----------------3b|0--------3b-----3b|0----------------3b|------------------|

E|-----------------|
B|----8\-----------|
G|----7\-----------|
D|----6\----2-----0| x8
A|----7\------0h2--|
E|0-0-----0--------|

  A7#9                              E7#9
E|-----8-------------|-----8-------|---------3----------|------3----------|--3-3-x-x-3-3-3-3|
B|-----8-x-x-x-------|-----8-------|---------3----------|x-----3----------|x-3-3-x-x-3-3-3-3|
G|-----6-x-x-x-------|6----6--0----|----0----1--0-------|x-1------0-------|x-1-1-x-x-1-1-1-1|
D|-----7-x-x-x-----5~|-----7----2--|0h2---2--2----2p0---|x---2------2p0---|x-2-2-x-x-2-2-2-2|
A|4------x-x-x-5h7---|------------2|--------------------|-----------------|-----------------|
E|--5----------------|--5----------|------------------3b|---------------3b|-----------------|

  A7                 E7#9                 A7                 E7#9                 A7
E|------------------|-----3-3-x-x-3-3-x-x|------------------|-----3-3-x-x-3-3-x-x|------------------|
B|2------7-----5----|-----3-3-x-x-3-3-x-x|2------7-----5----|-----3-3-x-x-3-3-x-x|2------7-----5----|
G|0-----------------|-----1-1-x-x-1-1-x-x|0-----------------|-----1-1-x-x-1-1-x-x|0-----------------|
D|2---/7---7\5---5p4|-----2-2-x-x-2-2-x-x|2---/7---7\5---5p4|-----2-2-x-x-2-2-x-x|2---/7---7\5---5p4|
A|0-----------------|--------------------|0-----------------|--------------------|0-----------------|
E|------------------|0-0-----------------|------------------|0-0-----------------|------------------|

  C      D             E
E|--------------------|---------|
B|--------------------|---------|
G|--------------------|---------|
D|2-2-2--4-4-4-/12----|---------|
A|3-3-3--5-5-5--------|---------|
E|-----------------12~|0-----12\|

Second verse is essentially the same, aside from a descending figure 
played in place of the palm muted bit:
E|------------------|
B|------------------|
G|--4---3---2---1---|
D|2---2---2---2-----|
A|------------------|
E|----------------3b|

  Solo
  E
E|-------------------------12----12|-------------15----15----15|---------12----------------------------------|
B|------12-12-15-15pb17~~-----15---|15b17~~~-----15----15----15|15----------15-12----------14-15b-12---------|
G|12b14----------------------------|----------16----16----16---|---14b16----------14-12----14-15b----14p12---|
D|---------------------------------|---------------------------|------------------------14-----------------14|
A|---------------------------------|---------------------------|---------------------------------------------|
E|---------------------------------|---------------------------|---------------------------------------------|

E|-----------------------------------------------|------------------------12-15b17-15~~|
B|12-------12-15p12-------15p12-------15p12------|15p12-------15p12--------------------|
G|---14b16----------14b16-------14b16-------14b16|------14b16-------14b16--------------|
D|-----------------------------------------------|-------------------------------------|
A|-----------------------------------------------|-------------------------------------|
E|-----------------------------------------------|-------------------------------------|

E|15-12----12---------|15--15--15----------12------------------|-------------------------------------------|
B|------15----15b17~~~|15--15--15-15-15b17----15p12------------|---15---------------------------12-------15|
G|--------------------|-----------------------------14-14p12---|14-14brbrb16-14b16-14br16p12-------14b16---|
D|--------------------|--------------------------------------14|-----------------------------14------------|
A|--------------------|----------------------------------------|-------------------------------------------|
E|--------------------|----------------------------------------|-------------------------------------------|

           A7                                                         E7
E|--------|------12---------------------------|----------------------|15p14----15p14----15p14----15p14---|
B|15---~~~|---12----15-15pbr17-15b17-15pb17~~~|14h15-14~-------------|------17-------17-------17-------17|
G|14b16~~~|14---------------------------------|----------12b-11-9~~~~|-----------------------------------|
D|--------|-----------------------------------|----------------------|-----------------------------------|
A|--------|-----------------------------------|----------------------|-----------------------------------|
E|--------|-----------------------------------|----------------------|-----------------------------------|

  
E|15-----------------------|-----------------------------|--------------------|12-------------|
B|---17b19~--17b19-17b19~~~|------15---------------------|15-15brbr17-15b17~~~|12-15----------|
G|-------------------------|14b16----14p12----14-12b-----|--------------------|------12b------|
D|-------------------------|---------------14--------14~~|--------------------|----------14~~~|
A|-------------------------|-----------------------------|--------------------|---------------|
E|-------------------------|-----------------------------|--------------------|---------------|

E|-----------------|
B|14b-12b--15b17~~~|
G|14b-12b----------|
D|-----------------|
A|-----------------|
E|-----------------|

  E7#9                 A7                 E7#9                 A7
E|-----3-3-x-x-3-3-x-x|------------------|-----3-3-x-x-3-3-x-x|------------------|
B|-----3-3-x-x-3-3-x-x|2------7-----5----|-----3-3-x-x-3-3-x-x|2------7-----5----|
G|-----1-1-x-x-1-1-x-x|0-----------------|-----1-1-x-x-1-1-x-x|0-----------------|
D|-----2-2-x-x-2-2-x-x|2---/7---7\5---5p4|-----2-2-x-x-2-2-x-x|2---/7---7\5---5p4|
A|--------------------|0-----------------|--------------------|0-----------------|
E|0-0-----------------|------------------|0-0-----------------|------------------|

  E7#9                 A7                 
E|-----3-3-x-x-3-3-x-x|------------------|
B|-----3-3-x-x-3-3-x-x|2------7-----5----|
G|-----1-1-x-x-1-1-x-x|0-----------------|
D|-----2-2-x-x-2-2-x-x|2---/7---7\5---5p4|
A|--------------------|0-----------------|
E|0-0-----------------|------------------|

  E7    A7 E
E|--------|------|
B|--------|-----9|
G|7-----6-|1----9|
D|6-----5-|2----9|
A|7-------|2----7|
E|------5-|0-----|
            
Submit corrections


        Trouble On Double Time Live  lessons Hard to play? Try these video lessons and learn fast Trouble On Double Time Live  lessons
        
↑ Back to top | Tablatures and chords for acoustic guitar and electric guitar, ukulele, drums are parodies/interpretations of the original songs. You may use it for private study, scholarship, research or language learning purposes only