» » »

Free - Hunter Bass

Artists:  A B C D E F G H I J K L M N O P Q R S T U V W X Y Z # 

Hunter Bass

(ver. 1) Click to play this song!
Free
 Rating:
4/5 (4 votes)

 Hunter lessons Tabs too difficult? Try these video lessons and learn fast
 
                
THE HUNTER (FREE) BASS TAB

Intro
G|---------------------|------------------|--------------------|-----------|
D|---------------------|------------------|--------------------|-7-5-------|
A|-------------0-3-5-3-|------------------|-------------0-3-5--|-----5-3-0-|
E|-5-5-5-5-5-5---------|-5-5-5-5-5-5--3-0-|-5-5-5-5-5-5------5-|-----------|

Verse 1
(…They call…)
G|---------------------|------------------|---------------------|------------------|
D|---------------------|------------------|---------------------|------------------|
A|-------------0-3-5-3-|------------------|-------------0-3-5-3-|------------------|
E|-5-5-5-5-5-5---------|-5-5-5-5-5-5--3-0-|-5-5-5-5-5-5---------|-5-5-5-5-5-5--3-0-|

(…I bought…)
G|---------------------|------------------|---------------------|------------------|
D|-------------0-3-5-3-|------------------|---------------------|------------------|
A|-5-5-5-5-5-5---------|-5-5-5-5-5-5------|-------------0-3-5-3-|------------------|
E|---------------------|--------------3-0-|-5-5-5-5-5-5---------|-5-5-5-5-5-5--3-0-|

Chorus
(…Ain’t no use…)
G|------------------------|-----------------|-------------------|---------------|
D|------------------5-7-5-|-----------------|-------------------|---------------|
A|-7-7-7-7---7--7-7-------|-5-5-5-5---5-----|---------------3-5-|-7-7-7-7---7-7-|
E|---------7--------------|---------5-----3-|-5-5-5-5-3-5-5-----|---------7-----|

Run b4 V2	  Verse 2
G|------------|(same as V1)|--------------7-9-9--|
D|------------|		|--7-7-7-9-9-9--------|
A|--10/12-12--|		|---------------------|
E|------------|		|---------------------|

Guitar Solo 1
G|---------------------------|-------------------------------|-----------------|
D|--------------------5--5-7-|-------------------------------|-----------------|
A|------------------5--5-----|---------------------7--5--6-7-|-----2-2-3-3-4-4-|
E|-5-5-3-5-5--3-5-5----------|-5-5-3-5-5--3-5-5--5--5--5-----|-5-5-------------|

G|------------------5--5-7-|----------------------|-------------------------------|
D|----------------5--5-----|--------------7-5-----|-------------------------------|
A|-5-5-5-5---5-5-----------|-5-5-5-5---5------5---|-----------------------0-3-5-0-|
E|---------5---------------|---------5----------8-|-5-5-5-5--3-5-5--3-5-5---------|

G|---------------|---------------5--5-7-|
D|---------------|-------------5--5-----|
A|---------------|-7-7-7-7---7----------|  } Repeat Guitar Solo Section
E|-5-5-5-5-3-5-5-|---------7------------|

Chorus
Verse 2
Chorus
Intro
Finish on ‘A’
            
Submit corrections


        Hunter lessons Hard to play? Try these video lessons and learn fast Hunter lessons
        
↑ Back to top | Tablatures and chords for acoustic guitar and electric guitar, ukulele, drums are parodies/interpretations of the original songs. You may use it for private study, scholarship, research or language learning purposes only