» » »

Free - Remember Tabs

Artists:  A B C D E F G H I J K L M N O P Q R S T U V W X Y Z # 

Remember Tabs

(ver. 1) Click to play this song!
Free
 Rating:
4.3/5 (21 vote)

 Remember  lessons Tabs too difficult? Try these video lessons and learn fast
 
                [Intro]

e|-------------------------------------------------7-------------------------|
B|---------------10----10~---------------------7b9---pb9~--------------------|
G|----------9-11----11-----------------9~------------------------------------| Lead
D|---7-9/11------------------------------------------------------------------|
A|---------------------------------------------------------------------------|
E|---------------------------------------------------------------------------|

e|---------------------3------------------------------0-----0----------------|
B|-2-------------------3-----3---3-----2--------------0-----0----------------|
G|-2-------------------0-----2---2-----2--------------1-----1----------------| Rhythm
D|-2-------------------0-----0---0-----2--------------2-----2----------------|
A|-0-------------------x-----x---x-----0--------------2-----2----------------|
E|---------------------3-----2---1--------------------0-----0----------------|


[Verse]

e|---------------------------------------------------------------------------|
B|--------------------3-3-3---3-----3----------------------------------------|
G|-2-2-2---2-----2----2-4-2---2-----2----------------------------------------|
D|-2-4-2---2-----2----0-0-0---0-2h4-0----------------------------------------|
A|-0-0-0---0-2h4-0-----------------------------------------------------------|
E|---------------------------------------------------------------------------| x4


[Chorus]

e|---------------------------------------------------------------------------|
B|---------------------------------------------------------------------------|
G|---------------------------------------------------7----7----9-------------|
D|---------------------------------------------------7----7----9-------------|
A|-9--11-9---------11-11-11---------9--11-9----------5----5----7-------------|
E|-7--7--7-(x4)----9--12-9--(x4)----7--7--7-(x4)-----------------------------|


[Solo]

e|-----5-7b9---------5-7b9---------------------------------------------------|
B|-5-7-----------5-7-------7~/---5~----10\7-------------5--------------------|
G|------------------------------------------5c------4b6---4b6--2~------------|
D|---------------------------------------------7~-----------------4\---------|
A|---------------------------------------------------------------------------|
E|---------------------------------------------------------------------------|

e|--------------17-----------------------------------12---14--14--14---------|
B|----13---15b17--pb17pbr15p13--13c----13p12--13p12--13c--13c-13c-13c--------|
G|-14~--14-------------------------14~------14-----14----------------14~-11\-|
D|---------------------------------------------------------------------------|
A|---------------------------------------------------------------------------|
E|---------------------------------------------------------------------------|

e|---17--17---------17---17----------17-17----------17-14--------------------|
B|-17--pb19pbr17b19----pb19pbr17b19-----17b19-17~----------------------------|
G|-------------------------------------------------------17-16----------14~--|
D|-------------------------------------------------------------16\14h16------|
A|---------------------------------------------------------------------------|
E|---------------------------------------------------------------------------|

e|---------------------------------------------------------------------------|
B|-----14h15---------------17-17--------------15b17br16b17-17--15pb16--------|
G|-16--14h16-------14-16b18---16b18--14-16-----------------------------------|
D|------------14h16----------------------------------------------------------|
A|---------------------------------------------------------------------------|
E|---------------------------------------------------------------------------|

e|---------------------------------------------------------------------------|
B|-15pb17pbr16b17-15pb16-15pb17pbr16b17-15pb16-15pb17pbr16b17--15b17-15~-----|
G|---------------------------------------------------------------------------|
D|---------------------------------------------------------------------------|
A|---------------------------------------------------------------------------|
E|---------------------------------------------------------------------------|

e|-----------------------------15b17~--12---12-------------------------------|
B|-13p12--13p12--13p12--13p12----------13c--13c----17b19-17b19~--------------|
G|------14-----14-----14-----14-----------14-----14------------17p14--14-14~-|
D|------------------------------------------------------------------16-------|
A|---------------------------------------------------------------------------|
E|---------------------------------------------------------------------------|

e|-------------------------17--17---------17---17---------17--17-------------|
B|-----------17-17-----------pb19pbr17b19----pb19pbr17b19---pb19pbr17b19-----|
G|---14-16b18---16b18--------------------------------------------------------|
D|-16------------------------------------------------------------------------|
A|---------------------------------------------------------------------------|
E|---------------------------------------------------------------------------|

e|-17--17-----------17-17----------------------------------------------------|
B|---pb19pbr17b19------17b19-17---15p13----15-13p12--------------------------|
G|-------------------------------------14----------14~-----------------------|
D|---------------------------------------------------------------------------|
A|---------------------------------------------------------------------------|
E|---------------------------------------------------------------------------|

e|----------------------10-----12-----14-14----------------------------------|
B|---------------------------------------------17b19~--17b19~--19b21~--------|
G|-pb11pbr9-7-9-9~--9/11--11/12--12/14---14----------------------------------|
D|---------------------------------------------------------------------------|
A|---------------------------------------------------------------------------|
E|---------------------------------------------------------------------------|            
Submit corrections


        Remember  lessons Hard to play? Try these video lessons and learn fast Remember  lessons
        
↑ Back to top | Tablatures and chords for acoustic guitar and electric guitar, ukulele, drums are parodies/interpretations of the original songs. You may use it for private study, scholarship, research or language learning purposes only