» » »

Free - Over The Green Hills Tabs

Artists:  A B C D E F G H I J K L M N O P Q R S T U V W X Y Z # 

Over The Green Hills Tabs

(ver. 1) Click to play this song!
Free
 Rating:
4.3/5 (15 votes)

 Over The Green Hills lessons Tabs too difficult? Try these video lessons and learn fast
 
                Gtr I (E A D G B E) - 'Paul Rodgers - Acoustic Guitar'

 [Intro]
  Q=109
  N.C.
  4/4
  Gtr I (Ac. Gtr.)
   PM------------------------------------------------------------------|
   E E E E E E E E   E E E E E E E E   E E E E E E E E   E E E E E E E E
e|-----------------|-----------------|-----------------|-----------------||
B|-----------------|-----------------|-----------------|-----------------||
G|-----------------|-----------------|-----------------|-----------------||
D|-----------------|-----------------|-----------------|-----------------||
A|---2---5---4---3-|---2---5---4---3-|---2---5---4---3-|---2---5---4---3-||
E|-0---0---0---0---|-0---0---0---0---|-0---0---0---0---|-0---0---0---0---||


  [Verse]
    N.C.
     PM------------------------------------------------------------------|
     E E E E E E E E   E E E E E E E E   E E E E E E E E   E E E E E E E E  4x
e||------------------|-----------------|-----------------|------------------||
B||o-----------------|-----------------|-----------------|-----------------o||
G||------------------|-----------------|-----------------|------------------||
D||------------------|-----------------|-----------------|------------------||
A||o---2---5---4---3-|---2---5---4---3-|---2---5---4---3-|---2---5---4---3-o||
E||--0---0---0---0---|-0---0---0---0---|-0---0---0---0---|-0---0---0---0----||


   G       A         C       B7        N.C.
                                       PM------------------------------|
   E E E E E E E E   E E E E E E E E   E E E E E E E E   E E E E E E E E
e|-----------------|---------------2-|-----------------|------------------*|
B|-------3-------2-|-------1---------|-----------------|------------------*|
G|-----0-------2---|-----0-------2---|-----------------|------------------*|
D|-----------2-----|---2-------1-----|-----------------|------------------*|
A|---2-----0-------|-3-------2-------|---2---5---4---3-|---2---5---4---3--*|
E|-3---------------|-----------------|-0---0---0---0---|-0---0---0---0----*|

            
Submit corrections


        Over The Green Hills lessons Hard to play? Try these video lessons and learn fast Over The Green Hills lessons
        
↑ Back to top | Tablatures and chords for acoustic guitar and electric guitar, ukulele, drums are parodies/interpretations of the original songs. You may use it for private study, scholarship, research or language learning purposes only