» » »

Free - Little Bit Of Love Tabs

Artists:  A B C D E F G H I J K L M N O P Q R S T U V W X Y Z # 

Little Bit Of Love Tabs

(ver. 1) Click to play this song!
Free
 Rating:
4/5 (4 votes)

 Little Bit Of Love lessons Tabs too difficult? Try these video lessons and learn fast
 
                Gtr I (E A D G B E) - 'Paul Kossoff - Electric Guitar 1'
Gtr II (E A D G B E) - 'Paul Kossoff - Electric Guitar 2'
Gtr III (E A D G B E) - 'Paul Kossoff - Electric Guitar 3'


 Intro
  Q=118
  B             E/B                 B                           E/B       B5
 4/4
  Gtr I
  Q   E E E E E E   +E  E E E E E E E   +E  E E E E E E E   Q   E E E E E E
|-----------------|-------------------|-------------------|------------------||
|-7---7---x---x-9-|-(9)-9-9---x-9-x-7-|-(7)-7-7---x-7-x---|-----9---x-9-x----||
|-8---8---x---x-9-|-(9)-9-9---x-9-x-8-|-(8)-8-8---x-8-x---|-----9---x-9-x----||
|-9---9---x---x-9-|-(9)-9-9---x-9-x-9-|-(9)-9-9---x-9-x---|-----9---x-9-x-9--||
|-9---9---x---x-7-|-(7)-7-7---x-7-x-9-|-(9)-9-9---x-9-x---|-----7---x-7-x-9--||
|-7---7---x---x-7-|-(7)-7-7---x-7-x-7-|-(7)-7-7---x-7-x-7-|-7---7---x-7-x-7--||
|
| Gtr II
| E E E E E E E E    E  E E E E E E E    E  E E E E E E E   E E E E E E E E
|-----7-----7-----|--7----7-7-7---7---|--7--7-7---7-----7-|---7-7---7-7-7-7--||
|-----------------|-------------------|-------------------|------------------||
|-4-4---4-4---4-4-|-----4-4-4-4-4-4-4-|--4--4-4-4---4-4---|-4---4-4-4-4-4-4--||
|-----------------|-------------------|-------------------|------------------||
|-----------------|-------------------|-------------------|------------------||
|-----------------|-------------------|-------------------|------------------||


 Chorus
  B5  B         E/B                 B5                E/B
  E E E E E E E E   +E  E E E E E E E   Q   E E E E E E   +E  E E E E E Q
|-----------------|-------------------|-----------------|-------------------|
|-----7---x-7-x-9-|-(9)-9-9---x---x---|-7---7---x-7-x-9-|-(9)-9-9---x---9---|
|-----8---x-8-x-9-|-(9)-9-9---x---x---|-8---8---x-8-x-9-|-(9)-9-9---x---9---|
|-9-9-9---x-9-x-9-|-(9)-9-9---x---x-9-|-9---9---x-9-x-9-|-(9)-9-9---x---9---|
|-9-9-9---x-9-x-7-|-(7)-7-7---x---x-9-|-9---9---x-9-x-7-|-(7)-7-7---x---7---|
|-7-7-7---x-7-x-7-|-(7)-7-7---x---x-7-|-7---7---x-7-x-7-|-(7)-7-7---x-7-7---|
|
| E E E E E E E E    E  E E E E E E E   E E E E E E E E    E  E E E E E E E
|-7---7---7-----7-|--7------7-----7---|---7-----7-----7-|--7----7---7-7-7---|
|-----------------|-------------------|-----------------|-------------------|
|-4-4---4-4-4-4---|--4--4-4---4-4---4-|-4---4-4---4-4---|-----4---4-4-4---4-|
|-----------------|-------------------|-----------------|-------------------|
|-----------------|-------------------|-----------------|-------------------|
|-----------------|-------------------|-----------------|-------------------|


  B                   E          B
  Q   E E  E  Q.      W          Q   E E E E E E   +Q    E E E Q.
|-------------------|-0--------|-----------------|--------------------||
|-7---7----x--------|-0--------|-7---7---7-7---7-|-(7)---7---x--------||
|-8---8----x--------|-1--------|-8---8---8-8---8-|-(8)---8---x--------||
|-9---9----x--------|-2--------|-9---9---9-9---9-|-(9)---9---x--------||
|-9---9----x--------|-2--------|-9---9---9-9---9-|-(9)---9---x--------||
|-7---7----x--7\----|-0--------|-7---7---7-7---7-|-(7)---7---x-7\-----||
|
| E E E E +E  Q   E   W          E E E E E E E E    E  E E E E E  E E
|-7-----7-(7)-7-----|----------|-7---7-7---7-----|--7------7---7--7---||
|-------------------|-9--------|-----------------|-----4-----4--------||
|-4-4-4-------4-----|-9--------|---4---4-4---4-4-|-----4-4---4-4--4---||
|-------------------|-9--------|-----------------|--------------------||
|-------------------|-7--------|-----------------|--------------------||
|-------------------|-0--------|-----------------|--------------------||


 1st Verse
  F#5                           E5            B5
  H     H       H       H        H     H       Q  E E  E E E E
|------------|----------------|-------------|------------------|
|------------|----------------|-------------|------------------|
|-6----/8----|-/9-----/11-----|-13----14----|-16---------------|
|------------|----------------|-------------|------------4-4---|
|-4----/6----|-/7------/9-----|-11----12----|-14--x-2-/6-------|
|------------|----------------|-------------|------------------|
|
| W            +H       Q  Q     W             H       E E Q
|------------|----------------|-------------|------------------|
|------------|----------------|-------------|------------------|
|------------|----------------|-------------|--4-------4-4-----|
|-4----------|-(4)------4-----|--2----------|--4-------4-4-----|
|-4----------|-(4)------4-----|--2----------|--2-------2-2-----|
|-2----------|-(2)------2-----|--0----------|------------------|


  F#5                            G#m                Esus4 E
  H    H       H      Q.     E    S  E.  +H.        W
|-----------|------------------|------------------|-----------------||
|-----------|------------------|------------------|-----------------||
|-6----8----|-/9-----11-----11-|-11s13--(13)------|-----------------||
|-----------|------------------|-11s13--(13)------|-----------------||
|-4----6----|-/7------9------9-|--9s11--(11)------|-----------------||
|-----------|------------------|------------------|-----------------||
|
|                                                   PM--|
| W           +H.         Q       W                 e e e E E E Q
|-----------|------------------|--4---------------|-----------------||
|-----------|------------------|--4---------------|-----5-----5-----||
|-----------|------------------|--4---------------|---4-----4-------||
|-4---------|-(4)--------------|--6---------------|-7-----6-----6\--||
|-4---------|-(4)--------------|--6---------------|-----------------||
|-2---------|-(2)--------------|--4---------------|-----------------||


 Chorus
  $
  B5  B         E/B                 B5  B             E/B
  E E E E E E E E   +E  E E E E E E E   Q   E E E E E E   +E  E E E E E Q
|-----------------|-------------------|-----------------|-------------------|
|-----7---x-7-x-9-|-(9)-9-9---x---x---|-7---7---x-7-x-9-|-(9)-9-9---x---9---|
|-----8---x-8-x-9-|-(9)-9-9---x---x---|-8---8---x-8-x-9-|-(9)-9-9---x---9---|
|-9-9-9---x-9-x-9-|-(9)-9-9---x---x-9-|-9---9---x-9-x-9-|-(9)-9-9---x---9---|
|-9-9-9---x-9-x-7-|-(7)-7-7---x---x-9-|-9---9---x-9-x-7-|-(7)-7-7---x---7---|
|-7-7-7---x-7-x-7-|-(7)-7-7---x---x-7-|-7---7---x-7-x-7-|-(7)-7-7---x-7-7---|
|
| E E E E E E E E    E  E E E E E E E   E E E E E E E E    E  E E E E E E E
|-----7-----7-----|--7------7-----7-7-|-7-7-7-7-7-7-7-7-|--7--7-7-7-7-7-7-7-|
|-----------------|-------------------|-----------------|-------------------|
|-4-4---4-4---4-4-|-----4-4---4-4-----|-4-4-4-4-4-4-4-4-|--4--4-4-4-4-4-4-4-|
|-----------------|-------------------|-----------------|-------------------|
|-----------------|-------------------|-----------------|-------------------|
|-----------------|-------------------|-----------------|-------------------|


                                                              To Coda
  B                  E          B
  Q   E E E Q.       W          Q   E E E E E E   +Q    E E E Q.
|------------------|-0--------|-----------------|----------------------||
|-7---7---x--------|-0--------|-7---7---7-7---7-|-(7)---7---x----------||
|-8---8---x--------|-1--------|-8---8---8-8---8-|-(8)---8---x----------||
|-9---9---x--------|-2--------|-9---9---9-9---9-|-(9)---9---x----------||
|-9---9---x--------|-2--------|-9---9---9-9---9-|-(9)---9---x----------||
|-7---7---x-7\-----|-0--------|-7---7---7-7---7-|-(7)---7---x-7\-------||
|
| E E E E E E  E E   W          E E E E E E E E    E  E Q   E E  E E
|-7-7-7-7-7-7--7-7-|----------|-----7---7-7-7-7-|--7--7-7---7-7--7-7---||
|------------------|----------|-----------------|----------------------||
|-4-4-4-4-4-4--4-4-|-9--------|-4-4---4-4-4-4-4-|--4--4-4---4-4--4-4---||
|------------------|-9--------|-----------------|----------------------||
|------------------|-7--------|-----------------|----------------------||
|------------------|-0--------|-----------------|----------------------||


 2nd Verse
  F#5
  H     H          H                  H
|---------------|----------------------------------|
|---------------|----------------------------------|
|-6----/8-------|-/9----------------/11------------|
|---------------|----------------------------------|
|-4----/6-------|-/7-----------------/9------------|
|---------------|----------------------------------|
|
| W               +H                  Q    Q
|---------------|----------------------------------|
|---------------|----------------------------------|
|---------------|----------------------------------|
|-4-------------|-(4)-----------------4------------|
|-4-------------|-(4)-----------------4------------|
|-2-------------|-(2)-----------------2------------|
|
| Gtr III
|                          ~~~~~~~~      ~~~~~~~~~~
| H     H          S      +E.  +Q     E  Q    +E
|---------------|----------------------------------|
|------14b16----|-14pb16r(14)-(14)---14-12---(12)\-|
|---------------|----------------------------------|
|---------------|----------------------------------|
|---------------|----------------------------------|
|---------------|----------------------------------|


  E5            B5
   H     H       Q  E E  E    E E E
|-------------|---------------------|
|-------------|---------------------|
|-13----14----|-16------------------|
|-------------|---------------4-4---|
|-11----12----|-14--x-2-/6----------|
|-------------|---------------------|
|
|  W             H       E    E Q
|-------------|---------------------|
|-------------|---------------------|
|-------------|--4-------4----4-----|
|--2----------|--4-------4----4-----|
|--2----------|--2-------2----2-----|
|--0----------|---------------------|
|
|  W             H       H
|-------------|---------14b17-------|
|-------------|---------------------|
|-------------|---------------------|
|-------------|---------------------|
|-------------|---------------------|
|-------------|---------------------|


  F#5
   H                H       H      Q.     E
|------------------------|------------------|
|------------------------|------------------|
|--6----------------8----|-/9-----11-----11-|
|------------------------|------------------|
|--4----------------6----|-/7------9------9-|
|------------------------|------------------|
|
|  W                       +H.         Q
|------------------------|------------------|
|------------------------|------------------|
|------------------------|------------------|
|--4---------------------|-(4)--------------|
|--4---------------------|-(4)--------------|
|--2---------------------|-(2)--------------|
|
|          ~~~~~~~~~~~~~~~~~~~~~~~~~~~~~~~~~~
|  S      +E.  +H.          H      H
|------------------------|-14-----14--------|
|-14pb16r(14)-(14)-------|------------------|
|------------------------|------------------|
|------------------------|------------------|
|------------------------|------------------|
|------------------------|------------------|


  G#m                    Esus4      E
   S     E.  +H.          W
|----------------------|-----------------------------||
|----------------------|-----------------------------||
|-11s===13--(13)-------|-----------------------------||
|-11s===13--(13)-------|-----------------------------||
|--9s===11--(11)-------|-----------------------------||
|----------------------|-----------------------------||
|
|                         PM------|
|  W                      e     e e E   E  E   Q
|--4-------------------|-----------------------------||
|--4-------------------|----------5--------5---------||
|--4-------------------|--------4-------4------------||
|--6-------------------|--7---------6----------6\----||
|--6-------------------|-----------------------------||
|--4-------------------|-----------------------------||
|
|~~~~~~~                  ~~~~~~~~~~~~~~~~~~~~~~~~~~
|  H.               Q     H            +Q     +Q
|-14b16----------------|-17b19========(17)---(17)r\--||
|----------------------|-----------------------------||
|----------------------|-----------------------------||
|----------------------|-----------------------------||
|----------------------|-----------------------------||
|----------------------|-----------------------------||


 Chorus
  B5  B         E/B                     F#5           E/B
  E E E E E E E E   +E  E E E E E E E   Q   E E E E E E   +E  E E E E E Q
|-----------------|-------------------|-----------------|-------------------|
|-----7---x-7-x-9-|-(9)-9-9---x---x---|-7---7---x-7-x-9-|-(9)-9-9---x---9---|
|-----8---x-8-x-9-|-(9)-9-9---x---x---|-8---8---x-8-x-9-|-(9)-9-9---x---9---|
|-9-9-9---x-9-x-9-|-(9)-9-9---x---x-9-|-9---9---x-9-x-9-|-(9)-9-9---x---9---|
|-9-9-9---x-9-x-7-|-(7)-7-7---x---x-9-|-9---9---x-9-x-7-|-(7)-7-7---x---7---|
|-7-7-7---x-7-x-7-|-(7)-7-7---x---x-7-|-7---7---x-7-x-7-|-(7)-7-7---x-7-7---|
|
| E E E E E E E E    E  E E E E E E E   E E E E E E E E    E  E E E E E E E
|-----7-----7-----|--7------7-----7-7-|-7-7-7-7-7-7-7-7-|--7--7-7-7-7-7-7-7-|
|-----------------|-------------------|-----------------|-------------------|
|-4-4---4-4---4-4-|-----4-4---4-4-----|-4-4-4-4-4-4-4-4-|--4--4-4-4-4-4-4-4-|
|-----------------|-------------------|-----------------|-------------------|
|-----------------|-------------------|-----------------|-------------------|
|-----------------|-------------------|-----------------|-------------------|


  B                  E          B
  Q   E E E Q.       W          Q   Q   E E E E    E E E E +Q   E  E
|------------------|-0--------|-----------------|--------------------||
|-7---7---x--------|-0--------|-4---4-----------|--------------------||
|-8---8---x--------|-1--------|-4---4---x-------|--------4-(4)-------||
|-9---9---x--------|-2--------|-4---4---x-------|----4-6----------11-||
|-9---9---x--------|-2--------|-2---2---x-2-2-2-|-/6-----------------||
|-7---7---x-7\-----|-0--------|-----------------|--------------------||
|
| E E E E E E  E E   W          E E E E E E E E    E E E E +Q   Q
|-7-7-7-7-7-7--7-7-|----------|-----7-----7-----|--7-----7-(7)-------||
|------------------|----------|-----------------|--------------------||
|-4-4-4-4-4-4--4-4-|-9--------|-4-4---4-4---4-4-|----4-4-4-(4)-------||
|------------------|-9--------|-----------------|--------------------||
|------------------|-7--------|-----------------|--------------------||
|------------------|-0--------|-----------------|--------------------||


 Guitar Solo
  F#5
                                             ~~~~~~~
   Q      H        E  E    E      +E     E   E  +Q    E   E
|--------14-------------|------------------------------------|
|-----------------14-14-|---------------14-------------------|
|-13b15-----------------|-13b15r=(13)-------11-(11)--13--11--|
|-----------------------|------------------------------------|
|-----------------------|------------------------------------|
|-----------------------|------------------------------------|
|
|         PM--|
|  Q      E E E Q     E    E.         S +E   E   Q    E   E
|-----------------------|------------------------------------|
|-----------------------|------------------------------------|
|-----------------------|------------------------------------|
|--4------4-4-4-4-----4-|--4----------4-(4)--4---4----4------|
|--4------4-4-4-4-----4-|--4----------4-(4)--4---4----4------|
|--2------2-2-2-2-----2-|--2----------2-(2)--2---2----2------|
|
| Gtr III
|  Q      H        E  E    H.                         E   E
|--------14-------------|-----------------------------x------|
|-----------------14-14-|-----------------------------x------|
|-13b15-----------------|-13pb15------------------------(11)-|
|-----------------------|------------------------------------|
|-----------------------|------------------------------------|
|-----------------------|------------------------------------|


  E                               B
   ~~~~~~
   H            E     E  E   E      Q    E  E  +E   E  E E
|-----------------------12------|---------------------------|
|--------------------12---------|---------------------------|
|--9-----------11b13------------|-------11-11-(11)-11s=9----|
|-------------------------------|---------------------------|
|-------------------------------|---------------------------|
|-------------------------------|---------------------------|
|
|  W                                W
|--0----------------------------|---------------------------|
|--0----------------------------|---7-----------------------|
|--1----------------------------|---8-----------------------|
|--2----------------------------|---9-----------------------|
|--2----------------------------|---9-----------------------|
|--0----------------------------|---7-----------------------|
|
|                            ~~~~~~~~~~~~~~~~~~~~~~
|  Q       Q   +E     E  E  +E     +Q    E  E  +E   E  e E
|---------12--(12)--------------|---------------------------|
|--------------------12---------|---------------------------|
|-11b13=================11r(11)-|-(11)--11-11-(11)-11s14----|
|-------------------------------|---------------------------|
|-------------------------------|---------------------------|
|-------------------------------|---------------------------|


  F#5
                      ~~~~~~~~~~~~~~~~~~~~~~~~~~~~~~~~~~~~~
   H           E  E  +Q         +E   Q.         H
|----------------------------|----------------------------|
|-------------14-------------|----------------------------|
|-13b15==========13r(13)-----|-(13)-11---------11---------|
|----------------------------|----------------------------|
|----------------------------|----------------------------|
|----------------------------|----------------------------|
|
|  W                            +H              E   E E E
|----------------------------|----------------------------|
|----------------------------|----------------------------|
|----------------------------|----------------------------|
|--4-------------------------|--(4)-------------4---4-4---|
|--4-------------------------|--(4)-------------4---4-4---|
|--2-------------------------|--(2)-------------2---2-2---|
|
|                         ~~~~~~~~~~        ~~~~~~~~
|  Q       Q   Q      E  +E     +E   E   E  E  +E   E Q
|---------14-----------------|----------------------------|
|-------------14-------------|----------------------------|
|-13b15==============13r(13)-|-(13)-11--13-11-(11)\-------|
|----------------------------|----------------------------|
|----------------------------|----------------------------|
|----------------------------|----------------------------|


                                  D.S. al Coda
  G#m
 ~~~~~~~~
   H.          +Q          W
|------------------------|---------------------||
|------------------------|---------------------||
|-11b13=======(11)r\-----|---------------------||
|------------------------|---------------------||
|------------------------|---------------------||
|------------------------|---------------------||
|
|  W                       E E  E E  E  E  Q
|--4---------------------|---------------------||
|--4---------------------|------5-------5------||
|--4---------------------|---4-------4----(0)--||
|--6---------------------|-7------6------------||
|--6---------------------|---------------------||
|--4---------------------|---------------------||
|
|  ~~~~~~~~~~~~~~~~~~        ~~~~~~~~~~~
|  H.          +E    +E    E Q.     +H
|------------------------|---------------------||
|------------------------|---------------------||
|--6b8=========(6)r==(6)-|-6p4------(4)--------||
|------------------------|---------------------||
|------------------------|---------------------||
|------------------------|---------------------||


 Outro
  &
  B5  B         E/B                 B5  B             E/B
  E E E E E E E E   +E  E E E E E E E   Q   E E E E E E   +E  E E E E E Q
|-----------------|-------------------|-----------------|-------------------|
|-----7---x-7-x-9-|-(9)-9-9---x---x---|-7---7---x-7-x-9-|-(9)-9-9---x---9---|
|-----8---x-8-x-9-|-(9)-9-9---x---x---|-8---8---x-8-x-9-|-(9)-9-9---x---9---|
|-9-9-9---x-9-x-9-|-(9)-9-9---x---x-9-|-9---9---x-9-x-9-|-(9)-9-9---x---9---|
|-9-9-9---x-9-x-7-|-(7)-7-7---x---x-9-|-9---9---x-9-x-7-|-(7)-7-7---x---7---|
|-7-7-7---x-7-x-7-|-(7)-7-7---x---x-7-|-7---7---x-7-x-7-|-(7)-7-7---x-7-7---|
|
| E E E E E E E E    E  E E E E E E E   E E E E E E E E    E  E E E E E E E
|-----7-----7-----|--7------7-----7-7-|-7-7-7-7-7-7-7-7-|--7--7-7-7-7-7-7-7-|
|-----------------|-------------------|-----------------|-------------------|
|-4-4---4-4---4-4-|-----4-4---4-4-----|-4-4-4-4-4-4-4-4-|--4--4-4-4-4-4-4-4-|
|-----------------|-------------------|-----------------|-------------------|
|-----------------|-------------------|-----------------|-------------------|
|-----------------|-------------------|-----------------|-------------------|


  B                  G#m
  Q   E E E Q.        H          +E  E E E
|------------------|--4----------(4)-4-4---|
|-7---7---x--------|--4----------(4)-4-4---|
|-8---8---x--------|--4----------(4)-4-4---|
|-9---9---x--------|--6----------(6)-6-6---|
|-9---9---x--------|--6----------(6)-6-6---|
|-7---7---x-7\-----|--4----------(4)-4-4---|
|
| E E E E E E  E E    E    E E E  E  E E E
|-7-7-7-7-7-7--7-0-|-----------------------|
|----------------0-|---------4-------5-----|
|-4-4-4-4-4-4--4---|-------4------4------4-|
|------------------|--6--------6-------6---|
|------------------|-----------------------|
|------------------|-----------------------|
|
| Gtr III
|                     ~~~~~
| W                   H.               Q
|------------------|-14b16-----------------|
|------------------|-----------------------|
|------------------|-----------------------|
|------------------|-----------------------|
|------------------|-----------------------|
|------------------|-----------------------|


  Esus4    E              B5
   E E E E  E S S +E  E   H    E E E  E
|-----------------------|------------(0)--|
|------5--------5-(5)---|--------0---(0)--|
|----4--------4---------|-4----0---0------|
|--7-----7--6-----------|-4---------------|
|-----------------------|-2---------------|
|-----------------------|-----------------|
|
|  E E E E  E S S +E  E   H    E E E  E
|-----------------------|------------(0)--|
|------5--------5-(5)---|--------0---(0)--|
|----4--------4---------|-4----0---0------|
|--7-----7--6-----------|-4---------------|
|-----------------------|-2---------------|
|-----------------------|-----------------|
|
|  ~~
|  H        E E    Q      W
|-----------------------|-----------------|
|-----------------------|-----------------|
|-14-------13-----------|-----------------|
|-----------------------|-----------------|
|-----------------------|-----------------|
|-----------------------|-----------------|


  Esus4    E              B                              Esus4  E
  Gtrs I, II
                                                          |-3-|  |----3-----|
   E E E E E  S S +E  E    H         +E.      S E   E     Q Q Q  Q  Q       Q
|-----------------------|------------------------------|----------------------|
|------5--------5-(5)---|--4---------(4)------4-4------|------5-------------5-|
|----4--------4---------|--4---------(4)------4-4------|----4-------4---------|
|--7-----7-6----------6-|--4---------(4)------4-4------|--7------6------------|
|-----------------------|--2---------(2)------2-2------|----------------------|
|-----------------------|------------------------------|----------------------|
|
| Gtr III
|  ~~         ~~           ~~~~~~~~~~~~~~                 ~~
|                                                                |----3-----|
|  H       E  Q       E    H         +E   +Q       +E     H      Q  Q       Q
|-----------------------|------------------------------|----------------------|
|-----------------------|-17b19=====(17)-(17)r====(17)-|-17-----17-15b15.5----|
|-14-------x-14---------|------------------------------|-------------------16-|
|-----------------------|------------------------------|----------------------|
|-----------------------|------------------------------|----------------------|
|-----------------------|------------------------------|----------------------|


  B                       Esus4    E      B5
                            |3|
  W                         Q H    H       H     S S E E E   W
|-------------------------|-------------|--------2---2-0---|------*|
|-4-----------------------|---5----5----|--------2h4-2-0---|------*|
|-4-----------------------|---4----4----|--4-------------1-|-4----*|
|-4-----------------------|-7-7----6----|--4---------------|-4----*|
|-2-----------------------|-------------|--2---------------|-2----*|
|-------------------------|-------------|------------------|------*|
|
|    ~~~~~~                 ~      ~~~~~~~~~~~
| E  Q.       +E   +E  Q    H    a H       H.          Q     W
|---17b19====(17)r(17)----|-------------|------------------|------*|
|-------------------------|-------------|------------------|------*|
|-------------------------|-------------|------------------|------*|
|-------------------------|-7----7s6----|-/9---------------|------*|
|-------------------------|-------------|------------------|------*|
|-------------------------|-------------|------------------|------*|
            
Submit corrections


        Little Bit Of Love lessons Hard to play? Try these video lessons and learn fast Little Bit Of Love lessons
        
↑ Back to top | Tablatures and chords for acoustic guitar and electric guitar, ukulele, drums are parodies/interpretations of the original songs. You may use it for private study, scholarship, research or language learning purposes only