» » »

Free - I'm A Mover Tabs

Artists:  A B C D E F G H I J K L M N O P Q R S T U V W X Y Z # 

I'm A Mover Tabs

(ver. 1) Click to play this song!
Free
 Rating:
4/5 (6 votes)

 I'm A Mover lessons Tabs too difficult? Try these video lessons and learn fast
 
                PROPS GO TO: Paul Chambers

Intro
E|---------------------------------------------------------------------------------------
B|----------------------------------------------------------------------------3b---------
G|----------------------------------------------------------------------------3b---------
D|-------5----------------------------------------------5----------5---------------------
A|-------5-----3----X---3---3----5------------------------------------------------3---3--
E|3--3----------------------------------6b-----3-------------3----------3----------------


--------------------5------------------------------------------5---------------5---------
5-------------------5----3---X----3----3-----5-------------------------------------------
----6b----3----3----------------------------------6b---3---------------3------------3----


Repeat main riff for several bars...

1st Solo

-------------------13-----------13--------------13---------------------------------------
-------10---12b----------12b-----------12b-------------12b~~~---12b12p10--12~~~---12---10
12~~~------------------------------------------------------------------------------------

-------------------------------------------------------10--------------------------------
-------------------------------------------------------------h13p10----------------------
-----10\9--------------------------------------------------------------12b---12p10--12---
12------------12----10----12~~~~12---10--------------------------------------------------
-------------------------------------------12----10\-------------------------------------

------------------------||
10---10----13B~~~~------||
10---10-----------------||
------------------------||
------------------------||
------------------------||


The other 2 solos are improvised round the top of a scale, like this one, so just use the same finger techniques and improvise.
            
Submit corrections


        I'm A Mover lessons Hard to play? Try these video lessons and learn fast I'm A Mover lessons
        
↑ Back to top | Tablatures and chords for acoustic guitar and electric guitar, ukulele, drums are parodies/interpretations of the original songs. You may use it for private study, scholarship, research or language learning purposes only