» » »

Free - Fire And Water Bass

Artists:  A B C D E F G H I J K L M N O P Q R S T U V W X Y Z # 

Fire And Water Bass

(ver. 1) Click to play this song!
Free
 Rating:
3.2/5 (30 votes)

 Fire And Water lessons Tabs too difficult? Try these video lessons and learn fast
 
                 Intro                                        1st Verse
  Q=68
 4/4
  Gtr I
  W          W          W          W           S S E E E S S E E E
|----------|----------|----------|----------||-----------------------|
|----------|----------|----------|----------||-----------------------|
|----------|----------|----------|----------||-----------------------|
|----------|----------|----------|----------||-5-7-7-x---5-7-7-x-----|


  S S E E E S S E E E   S S E E E S S E Q    S S E E E E S S +E  E
|---------------------|--------------------|-----------------------|
|---------------------|--------------------|---------------------7-|
|-5-7-7-x-------------|--------------------|-5-7-7-x---7---5-(5)-0-|
|-----------5-7-7-x---|-5-7-7-x---5-7-7----|-----------------------|


  S S E E E S S E E E   S S E E E S S E E E   S S E E E S S E E E
|---------------------|---------------------|---------------------|
|---------------------|---------------------|---------------------|
|---------------------|-5-7-7-x-------------|---------------------|
|-5-7-7-x---5-7-7-x---|-----------5-7-7-x---|-5-7-7-x---5-7-7-x---|


                          Chorus
  S S E E E E S S +E  E    E E E E E E E E   E E E E E E E E   H    H
|-----------------------||-----------------|-----------------|-7---------|
|---------------------7-||---------9---9---|-------------9---|-0----7----|
|-5-7-7-x-7-7---5-(5)-0-||-----------------|-----------------|------0----|
|-----------------------||-7---7-7---------|-5---5---7-------|-----------|


                                            2nd Verse
                                  2/4       4/4
  H    Q.   E   E S S +E  E H      +H        S S E E E S S E Q
|-------------|-------------4----|-(4)----||--------------------|
|-------------|-------------2----|-(2)----||--------------------|
|-7-----------|-7---5-(5)-4------|--------||--------------------|
|-0----7------|------------------|--------||-5-7-7-x---5-7-7----|


                                                     PM
  S S E E E S S E E E   S S E E E S S E Q    S S E E E E S S +E  E
|---------------------|--------------------|-----------------------||
|---------------------|--------------------|-----------------------||
|-5-7-7-x-------------|--------------------|-5-7-7-x-7-7---5-(5)---||
|-----------5-7-7-x---|-5-7-7-x---5-7-7----|---------------------5-||


 Chorus
  E E E E E E E E   E E E E E E E E   H    H      H    Q.   E
|-----------------|-----------------|-7---------|--------------|
|---------9---9---|-----------------|-0----7----|--------------|
|-----------------|-----------------|------0----|-7------------|
|-7---7-7---------|-5---5---7---7---|-----------|-0----7-------|


                              Guitar Solo
                    2/4       4/4
  E S S +E  E H      +H        W          H    H
|-------------4----|-(4)----||----------|-----------|
|-------------2----|-(2)----||----------|------9----|
|-7---5-(5)-4------|--------||-9--------|-7---------|
|------------------|--------||-7--------|-0---------|


  H    E E Q    H    E E Q    W          H    E E E E
|-------------|-------------|----------|------9-9-9-9--|
|------9-9----|------9-9----|----------|---------------|
|-------------|----------7--|-9--------|-7-------------|
|-7--------7--|-0-----------|-7--------|-0-------------|


  H    e e E E   E E E E Q  Q    H    E S S E E
|--------------|------------9--|----------------|
|-9----9-9-----|---------------|-9----9-7-------|
|--------------|-7---7---7-----|----------9-7---|
|----------7-7-|-0---0---------|--------------7-|


  S E. E E E E e e   H    H      H    e e S S E
|------9-9-9-9-9-9-|-----------|----------------|
|------------------|------9----|----------------|
|-5-7--7-7-7-7-7-7-|-----------|-7----7-7-7-----|
|------------------|-7---------|------------7-0-|


  E E E E E. S e e   E E E E E E e e   E E E E S S E +Q
|------------------|---------9-9-9-9-|--------------------|
|------------9-9-9-|-----------------|-9---9--------------|
|------------------|-7---7---7-7-7-7-|--------------------|
|-7---7---7--------|-0---0-----------|-7---7---5-6-7-(7)--|


                          3rd Verse
  W          +W            S S E E E S S E Q
|----------|------------||--------------------|
|----------|------------||--------------------|
|-7--------|-(7)--------||--------------------|
|-0--------|-(0)--------||-5-7-7-x---5-7-7----|


  S S E E E S S E E E   S S E E E S S E Q    S S E E E E S S +E  E
|---------------------|--------------------|-----------------------||
|---------------------|--------------------|---------------------7-||
|-5-7-7-x-------------|--------------------|-5-7-7-x-7-7---5-(5)-0-||
|-----------5-7-7-x---|-5-7-7-x---5-7-7----|-----------------------||


 Chorus
  E E E E E E E E   E E E E E E E E   H    H      H    H
|-----------------|-----------------|-7---------|-----------|
|---------9---9---|---------9---9---|-0----7----|-----------|
|-----------------|-----------------|------0----|-7----5----|
|-7---7-7---------|-5---5---7---7---|-----------|-0---------|


  E E E E E E E E   E E E E E E E E   H    H      H    H      E S S +E  E H
|-----------------|-----------------|-7---------|-----------|------------------|
|-----------------|-----------------|-0----7----|-----------|------------------|
|-----------------|-----------------|------0----|-7---------|-7---5-(5)-4-7----|
|-7---7-7-7---7---|-5---5---7---7---|-----------|-0----7----|-0-----------0----|


 2/4      4/4
  +H       +S  E. +H.        +S  E. +H.        +W
|--------|-----------------|-----------------|--------|
|--------|-----------------|-----------------|--------|
|-(7)----|-(7)-7--(7)------|-(7)-7--(7)------|-(7)----|
|-(0)----|-(0)-0--(0)------|-(0)-0--(0)------|-(0)----|


              Outro  (Drums)
  W            W          W     3x
|----------||-----------|-------||
|----------||o----------|------o||
|----------||o----------|------o||
|----------||-----------|-------||
            
Submit corrections


        Fire And Water lessons Hard to play? Try these video lessons and learn fast Fire And Water lessons
        
↑ Back to top | Tablatures and chords for acoustic guitar and electric guitar, ukulele, drums are parodies/interpretations of the original songs. You may use it for private study, scholarship, research or language learning purposes only