Home » F » Freddie Aguilar »

Freddie Aguilar - Sulat Tabs

Artists:  A B C D E F G H I J K L M N O P Q R S T U V W X Y Z # 

Sulat Tabs

(ver. 1) Click to play this song!
Freddie Aguilar
[Intro]

e|---0---------2---4-5-7----9-11---------------12---7------------------------|
B|---0--2-4-5----------------------12-10-9-----------------------------------|
G|---1--------------------------------------11-------------------------------|
D|---2-----------------------------------------------------------------------|
A|---2-----------------------------------------------------------------------|
E|---0-----------------------------------------------------------------------|

e|---------------------------------------------------------------------------|
B|----9-7--------------------------------------------------------------------|
G|--------8-6-4-6------------------------------------------------------------|
D|----------------6-4---------------2~---------------------------------------|
A|--------------------6-4-----2-4--------------------------------------------|
E|------------------------4-2------------------------------------------------|            
Submit corrections

↑ Back to top | Tablatures and chords for acoustic guitar and electric guitar, ukulele, drums are parodies/interpretations of the original songs. You may use it for private study, scholarship, research or language learning purposes only