Home » F » Freddie Aguilar »

Freddie Aguilar - Anak Tabs

Artists:  A B C D E F G H I J K L M N O P Q R S T U V W X Y Z # 

Anak Tabs

(ver. 1) Click to play this song!
Freddie Aguilar
 Rating:
4.7/5 (12 votes)
                SANA MAGUSTUHAN NYO:
intro:

e|-0----0---|-0h2----2--|-2h3----3--|-3p2----2--|-2p0----0--|
B|----0--0--|------0--0-|------0--0-|------0--0-|------0--0-|
G|---0------|-----0-----|-----0-----|-----0-----|-----0-----|
D|-----2----|-------2---|-------2---|-------2---|-------2---|
A|-2--------|-2---------|-2---------|-2---------|-2---------|
E|----------|-----------|-----------|-----------|-----------|

e|-0----0---|-0h2----2--|-2h3----3--|-3p2----2--|-2p0----0--|
B|----0--0--|------0--0-|------0--0-|------0--0-|------0--0-|
G|---0------|-----0-----|-----0-----|-----0-----|-----0-----|
D|-----2----|-------2---|-------2---|-------2---|-------2---|
A|-2--------|-2---------|-2---------|-2---------|-2---------|
E|----------|-----------|-----------|-----------|-----------|

e|-0----0--|-0----0--|-2----2--|-2h3-2--0--2|
B|----1--1-|----1--1-|----3--3-|------------|
G|---0-----|---0-----|---2-----|------------|
D|-----2---|-----2---|-----0---|------------|
A|-3-------|-3-------|-0-------|-0---0--0--0|
E|---------|---------|---------|------------|
repeat 2x

verse:

e|-0---0--|-0---0--|-0---0--|-0---0--|-2---2--|-2---2--|-0---0--|-0h2---0--|
B|---0--0-|---0--0-|---1--1-|---1--1-|---3--3-|---3--3-|---0--0-|-----0--0-|
G|--0-----|--0-----|--0-----|--0-----|--2-----|--2-----|--0-----|----0-----|
D|----2---|----2---|----2---|----2---|----0---|----0---|----2---|------2---|
A|-2------|-2------|-3------|-3------|-0------|-0------|-2------|-2--------|
E|--------|--------|--------|--------|--------|--------|--------|----------|
nung isinilang...   laking tuwa ng... at ang kamay.... ilaw...
at ang nanay...     di malaman...     minamasdan...    mo...

e|-0---0--|-0h2---0--|
B|---0--0-|-----0--0-|
G|--0-----|----0-----|
D|----2---|------2---|
A|-2------|-2--------|
E|--------|----------|
(...ilaw)
(...mo)

e|-0---0--|-0---0--|-2---2--|-2---2--|-0---0--|-0h2---0--|
B|---1--1-|---1--1-|---3--3-|---3--3-|---0--0-|-----0--0-|
G|--0-----|--0-----|--2-----|--2-----|--0-----|----0-----|
D|----2---|----2---|----0---|----0---|----2---|------2---|
A|-3------|-3------|-0------|-0------|-2------|-2--------|
E|--------|--------|--------|--------|--------|----------|
at sa gabi...       nanay sa...       gatas mo...
at sa umaga'y...    iyong ama...      sa'yo...

e|-0---0--|-0---0--|-0---0--|-0---0--|-2---2--|-2---2--|-0---0--|-0h2---0--|
B|---0--0-|---0--0-|---1--1-|---1--1-|---3--3-|---3--3-|---0--0-|-----0--0-|
G|--0-----|--0-----|--0-----|--0-----|--2-----|--2-----|--0-----|----0-----|
D|----2---|----2---|----2---|----2---|----0---|----0---|----2---|------2---|
A|-2------|-2------|-3------|-3------|-0------|-0------|-2------|-2--------|
E|--------|--------|--------|--------|--------|--------|--------|----------|
ngayo'y nga...     nais mo...        di man...          magawa...
ikaw nga'y...      naging matigas... pati payo...       mo...

e|-0---0--|-0h2---0--|
B|---0--0-|-----0--0-|
G|--0-----|----0-----|
D|----2---|------2---|
A|-2------|-2--------|
E|--------|----------|
(...magawa)
(...mo)

e|-0---0--|-0---0--|-2---2--|-2---2--|-0---0--|-0h2---0--|
B|---1--1-|---1--1-|---3--3-|---3--3-|---0--0-|-----0--0-|
G|--0-----|--0-----|--2-----|--2-----|--0-----|----0-----|
D|----2---|----2---|----0---|----0---|----2---|------2---|
A|-3------|-3------|-0------|-0------|-2------|-2--------|
E|--------|--------|--------|--------|--------|----------|
di mo...           ginagawa'y...      para sa'yo...
pagkat nais...     layaw mo...        pinapansin...

e|-0---0--|-0---0--|-0---0--|-0---0--|-2---2--|-2---2--|-0---0--|-0h2---0--|
B|---0--0-|---0--0-|---1--1-|---1--1-|---3--3-|---3--3-|---0--0-|-----0--0-|
G|--0-----|--0-----|--0-----|--0-----|--2-----|--2-----|--0-----|----0-----|
D|----2---|----2---|----2---|----2---|----0---|----0---|----2---|------2---|
A|-2------|-2------|-3------|-3------|-0------|-0------|-2------|-2--------|
E|--------|--------|--------|--------|--------|--------|--------|----------|
nagdaan pa...      at ang landas...  ikaw ay...        bisyo...
at ang una mo...    ay ang inang...    at ang tanong... ganyan...

e|-0---0--|-0h2---0--|
B|---0--0-|-----0--0-|
G|--0-----|----0-----|
D|----2---|------2---|
A|-2------|-2--------|
E|--------|----------|
(...bisyo)
(...ganyan)

e|-0---0--|-0---0--|-2---2--|-2---2--|-0---0--|-0h2---0--|
B|---1--1-|---1--1-|---3--3-|---3--3-|---0--0-|-----0--0-|
G|--0-----|--0-----|--2-----|--2-----|--0-----|----0-----|
D|----2---|----2---|----0---|----0---|----2---|------2---|
A|-3------|-3------|-0------|-0------|-2------|-2--------|
E|--------|--------|--------|--------|--------|----------|
at ang iyong...     lumuha na...      napapansin...
pagsisisi sa isip... nalaman mong...  nagkamali... 3x
            
Submit corrections

↑ Back to top | Tablatures and chords for acoustic guitar and electric guitar, ukulele, drums are parodies/interpretations of the original songs. You may use it for private study, scholarship, research or language learning purposes only