» » »

Franz Ferdinand - Twilight Omens Tabs

Artists:  A B C D E F G H I J K L M N O P Q R S T U V W X Y Z # 

Twilight Omens Tabs

(ver. 1) Click to play this song!
Franz Ferdinand
 Rating:
4.3/5 (24 votes)

 Twilight Omens lessons Tabs too difficult? Try these video lessons and learn fast
 
                [Guitar 1 Intro]
e|--1-----0-----------0--|
B|--3-----1-----3-----1--|
G|----(2)---(2)-4-(2)----| x4
D|-----------------------|
A|-----------------------|
E|-----------------------|

[Guitar 2 Intro]
    Am  
e|--0---0---0---0--|
B|--1---1---1---1--|
G|--2---2---2---2--| x2
D|--2---2---2---2--|
A|--0---0---0---0--|
E|-----------------|

Dm           G             C          F
I wrote your name upon the back of my hand
       Dm         Em              Dm               Em
slept upon then i woke up with it backwards on my face
        Dm               F              Am
reading forwards from my mirror to my heart

[Guitar 1 Riff]
e|--1-----0-----------0--|
B|--3-----1-----3-----1--|
G|----(2)---(2)-4-(2)----| x2
D|-----------------------|
A|-----------------------|
E|-----------------------|

[Guitar 2 Riff]
    Am  
e|--0---0---0---0--|
B|--1---1---1---1--|
G|--2---2---2---2--| x2
D|--2---2---2---2--|
A|--0---0---0---0--|
E|-----------------|

C  G     Dm          F                     Am
Twilight omens in my life then i hear your name
F              Am            F                    Am  
hear the radio sing your name should i give you a call
            Dm            Am
what can i say? maybe you still feel the same

[Guitar 1 Riff]
e|--1-----0-----------0--|
B|--3-----1-----3-----1--|
G|----(2)---(2)-4-(2)----| x4
D|-----------------------|
A|-----------------------|
E|-----------------------|

[Guitar 2 Riff]
    Am  
e|--0---0---0---0--|
B|--1---1---1---1--|
G|--2---2---2---2--| x4
D|--2---2---2---2--|
A|--0---0---0---0--|
E|-----------------|

Dm           G         C          F              Dm              Em   
I typed your numbers into my calculator where it spelled a dirty word
         Dm               Em
when you turned it upside down
        Dm            F                    Am
you can turn my dirty world the bright way round

[Guitar 1 Riff]
e|--1-----0-----------0--|
B|--3-----1-----3-----1--|
G|----(2)---(2)-4-(2)----| x4
D|-----------------------|
A|-----------------------|
E|-----------------------|

[Guitar 2 Riff]
    Am  
e|--0---0---0---0--|
B|--1---1---1---1--|
G|--2---2---2---2--| x4
D|--2---2---2---2--|
A|--0---0---0---0--|
E|-----------------|

C  G     Dm          F                     Am
Twilight omens in my life then i hear your name
F              Am            F                    Am  
hear the radio sing your name should i give you a call
            Dm            Am
what can i say? maybe you still feel the same

[Guitar 1 Riff]
e|--1-----0-----------0--|
B|--3-----1-----3-----1--|
G|----(2)---(2)-4-(2)----| x2
D|-----------------------|
A|-----------------------|
E|-----------------------|

[Guitar 2 Riff]
    Am  
e|--0---0---0---0--|
B|--1---1---1---1--|
G|--2---2---2---2--| x2
D|--2---2---2---2--|
A|--0---0---0---0--|
E|-----------------|

Guitar 2 plays these Chords: Dm G C F Dm Em Am

[Guitar 1 "Synth" Solo]
e|--20---17--13--15---12---15--12--10-12-8--|--10----12----8--|
B|------------------------------------------|-----------------|
G|------------------------------------------|-----------------|
D|------------------------------------------|-----------------|
A|------------------------------------------|-----------------|
E|------------------------------------------|-----------------|

e|--10---10-8-7-8-----10---10-8-7-8--|
B|-----------------------------------|
G|-----------------------------------|
D|-----------------------------------|
A|-----------------------------------|
E|-----------------------------------|

[Guitar 2 Riff]
    Am  
e|--0---0---0---0--|
B|--1---1---1---1--|
G|--2---2---2---2--| x2
D|--2---2---2---2--|
A|--0---0---0---0--|
E|-----------------|

C  G     Dm          F                     Am
Twilight omens in my life then i hear your name
F              Am            F                    Am  
hear the radio sing your name should i give you a call
            Dm            Am
what can i say? maybe you still feel the same            
Submit corrections


        Twilight Omens lessons Hard to play? Try these video lessons and learn fast Twilight Omens lessons
        
↑ Back to top | Tablatures and chords for acoustic guitar and electric guitar, ukulele, drums are parodies/interpretations of the original songs. You may use it for private study, scholarship, research or language learning purposes only