» » »

Franz Ferdinand - Lazy Boy Tabs

Artists:  A B C D E F G H I J K L M N O P Q R S T U V W X Y Z # 

Lazy Boy Tabs

(ver. 1) Click to play this song!
Franz Ferdinand
 Rating:
4.4/5 (14 votes)

 Lazy Boy lessons Tabs too difficult? Try these video lessons and learn fast
 
                [Intro]

Synth part:

e|---6-5----8-6-5-------6-5-----8-6-5------------------------|
B|------------------6-5------------------6-5------6p5p3------|
G|-----------------------------------------------------------|
D|-----------------------------------------------------------|
A|-----------------------------------------------------------|
E|-----------------------------------------------------------|

e|------10------10----------------------10------10----------------------10---10-----------------------|
B|--------------------13----11-10---------------------13----11----10------------13-11-10--------------|
G|--------------------------------12---------------------------12------------------------12-10-9------|
D|---12------12----12----12----------12------12----12----12----------12--------------------------12---|
A|----------------------------------------------------------------------------------------------------|
E|----------------------------------------------------------------------------------------------------|


[Riff]

e|-------------------------------------------------|
B|-------------------------------------------------|
G|-------------------------------------------------|
D|-------3-------------------3---------3---3-3b----|
A|---3h5---5---5-x-3-5---3h5---5---3h5---5------5--|
E|-------------------------------------------------|

e|-------------------------------------------------|
B|-------------------------------------------------|
G|-------------------------------------------------|
D|-------3-------------------3---------3---3-5p3---|
A|---3h5---5---5-x-3-5---3h5---5---3h5---5-------5-|
E|-------------------------------------------------|


[Pre-Chorus]

Am I gonna get up?          Am I gonna get up, get up? Ne-ver!
e|-----------------5--5-5--------------------------------------5----|
B|-----------------6--6-6--------------------------------------6----|
G|-----------------7--7-7--------------------------------------7----|
D|-----------------7--7-7--------------------------------------7----|
A|------------------------------------------------------------------|
E|------------------------------------------------------------------|




[Chorus]
 I'm a lazy boy...
e|---------------------------------------------|
B|---------------------------------------------|
G|---------------------------------------------|
D|--8-8-8-8-8-8-7-7-7-7-7-7--------------------|
A|--------------------------5-5-5-5-5-5-5-5----|
E|---------------------------------------------|

e|---------------------------------------------|
B|---------------------------------------------|
G|---------------------------------------------|
D|------------------------------------5-7-7----|
A|--8-8-8-8-8-8-7-7-7-7-7-7-5-5-7-7-8----------|
E|--6-6-6-6-6-6-5-5-5-5-5-5--------------------|
 
 And that lazy boy loves you
e|----------------------------------|
B|----------------------------------|
G|----------------------------------|
D|--8-8-8-8-8-8-7-7-7-7-7-7---------|
A|--------------------------5--5--5-|
E|----------------------------------|

e|----------------------------------|
B|----------------------------------|
G|----------------------------------|
D|--------------------------7--7--7-|
A|--8-8-8-8-8-8-7-7-7-7-7-7-5--5--5-|
E|--6-6-6-6-6-6-5-5-5-5-5-5---------|

[Break]
e|-------------------------------------|
B|-------------------------------------|
G|------7-10--10-9-7------7-10-9-7---7-|
D|--6-7---------------6-7----------7---|
A|-------------------------------------|
E|-------------------------------------|

e|-------------------------------------|
B|-------------------------------------|
G|------7-10--10-9-7------7-10-9-7---7-|
D|--6-7---------------6-7----------7---|
A|-------------------------------------|
E|-------------------------------------|

e|-------------------------------------|
B|-------------------------------------|
G|-------------------------------------|
D|--7-6-6-6-6-6-6-6-6-6-6-6-6-6-5~--3~-|
A|-------------------------------------|
E|-------------------------------------|

e|-------------------------------------|
B|-------------------------------------|
G|-------------------------------------|
D|-------------------------------------|
A|--3/5-5-5-5-5-5-5-5-5-5-5-5-5-5-5-5--|
E|-------------------------------------|

[Pre-Chorus 2]

Am I gonna get up?    Am I gonna get up, get up? Ne-ver!
e|-----------------5--5-5------------------5--5-5-|
B|-----------------6--6-6------------------6--6-6-|
G|-----------------7--7-7------------------7--7-7-|
D|-------3---------7--7-7-------3----------7--7-7-|
A|---3-5---5-3-5------------3-5---5-3-5-----------|
E|------------------------------------------------|

[Chorus]
 I'm a lazy boy...
e|---------------------------------------------|
B|---------------------------------------------|
G|---------------------------------------------|
D|--8-8-8-8-8-8-7-7-7-7-7-7--------------------|
A|--------------------------5-5-5-5-5-5-5-5----|
E|---------------------------------------------|

e|---------------------------------------------|
B|---------------------------------------------|
G|---------------------------------------------|
D|------------------------------------5-7-7----|
A|--8-8-8-8-8-8-7-7-7-7-7-7-5-5-7-7-8----------|
E|--6-6-6-6-6-6-5-5-5-5-5-5--------------------|
 
And that lazy boy loves you
e|-------------------------------------|
B|-------------------------------------|
G|-------------------------------------|
D|--8-8-8-8-8-8-7-7-7-7-7-7------------|
A|--------------------------5--5--5--5-|
E|-------------------------------------|

e|-------------------------------------|
B|-------------------------------------|
G|-------------------------------------|
D|--------------------------7--7--7--7-|
A|--8-8-8-8-8-8-7-7-7-7-7-7-5--5--5--5-|
E|--6-6-6-6-6-6-5-5-5-5-5-5------------|            
Submit corrections


        Lazy Boy lessons Hard to play? Try these video lessons and learn fast Lazy Boy lessons
        
↑ Back to top | Tablatures and chords for acoustic guitar and electric guitar, ukulele, drums are parodies/interpretations of the original songs. You may use it for private study, scholarship, research or language learning purposes only