» » »

Franz Ferdinand - Katherine Kiss Me Tabs

Artists:  A B C D E F G H I J K L M N O P Q R S T U V W X Y Z # 

Katherine Kiss Me Tabs

(ver. 1) Click to play this song!
Franz Ferdinand
 Rating:
4/5 (4 votes)

 Katherine Kiss Me lessons Tabs too difficult? Try these video lessons and learn fast
 
                -------------------------------------------------------------------------------
                        FRANZ FERDINAND - Katherine Kiss Me
-------------------------------------------------------------------------------

Tuning: standard (no capo).

Hi, this is the last song of Franz Ferdinand's 'Tonight'.
It is played with 2 (or even 3) guitars. This tab includes the main riff guitar.
If you've found a mistake please send me a mail about it.

INTRO:

e|-----------------------------------------------------------------|
B|----------0---------------0---------------0---------------0------|
G|--------------0---------------0---------------0---------------0--|
D|------0---------------0---------------0---------------0----------| X 3
A|------------------2-------------------------------2--------------|
E|--3-------------------------------3------------------------------|

VERSE 1:

e|-----------------------------------------------------------------|
B|----------0---------------0---------------0---------------0------|
G|--------------0---------------0---------------0---------------0--|
D|------0---------------0---------------0---------------0----------|
A|------------------2-------------------------------2--------------|
E|--3-------------------------------3------------------------------|
     Katherine      kiss me                         slip your little

e|-----------------------------------------------------------------|
B|----------0---------------0---------------0---------------0------|
G|--------------0---------------0---------------0---------------0--|
D|------0---------------0---------------0---------------0----------|
A|------------------2-------------------------------2--------------|
E|--3-------------------------------3------------------------------|
    lips    will    split me                        split me away your

e|-----------------------------------------------------------------|
B|----------0---------------0---------------0---------------0------|
G|--------------0---------------0---------------0---------------0--|
D|------2---------------2---------------2---------------2----------|
A|------------------2-------------------------------2--------------|
E|--0-------------------------------0------------------------------|
    eye    won't    meet me

e|-----------------------------------------------------------------|
B|----------1---------------1---------------1---------------1------|
G|--------------0---------------0---------------0---------------0--|
D|------2---------------2---------------2---------------2----------|
A|--3--------------------------------------------------------------|
E|------------------3---------------3---------------3--------------|
    yes     I       love you                I mean I

--VERSE 1 END--

e|--2--------------------------------------------------------------|
B|--3--------------------------------------------------------------|
G|--2--------------------------------------------------------------|
D|--0--------------------------------------------------------------|
A|-----------------------------------------------------------------|
E|-----------------------------------------------------------------|
    I'd love to get to know you

CHORUS 1:

e|-----------------------------------------------------------------|
B|----------0---------------0---------------0---------------0------|
G|--------------0---------------0---------------0---------------0--|
D|------2---------------2---------------2---------------2----------|
A|------------------2-------------------------------2--------------|
E|--0-------------------------------0------------------------------|
             Sometimes     I      say         the        stupid  

e|-----------------------------------------------------------------|
B|----------0---------------0---------------0---------------0------|
G|--------------2---------------2---------------2---------------2--|
D|------1---------------1---------------1---------------1----------|
A|------------------2-------------------------------2--------------|
E|--2-------------------------------2------------------------------|
    things                         I think,             I mean I

e|-----------------------------------------------------------------|
B|----------1---------------1---------------1---------------1------|
G|--------------0---------------0---------------0---------------0--|
D|------2---------------2---------------2---------------2----------|
A|--3--------------------------------------------------------------|
E|------------------3---------------3---------------3--------------|
                sometimes      I think      the     stupidest

e|-----------------------------------------------------------------|
B|----------3---------------3---------------3---------------3------|
G|--------------3---------------3---------------3---------------3--|
D|------5---------------5---------------5---------------5----------|
A|------------------5-------------------------------5--------------|
E|--3-------------------------------3------------------------------|
    things                                          mmm-

e|-----------------------------------------------------------------|
B|----------1---------------1---------------1---------------1------|
G|--------------0---------------0---------------0---------------0--|
D|------2---------------2---------------2---------------2----------|
A|--3--------------------------------------------------------------|
E|------------------3---------------3---------------3--------------|
    mmm...                                     and do you ever

e|-----------------------------------------------------------------|
B|----------3---------------3---------------3---------------3------|
G|--------------3---------------3---------------3---------------3--|
D|------5---------------5---------------5---------------5----------|
A|------------------5-------------------------------5--------------|
E|--3-------------------------------3------------------------------|
    wonder

e|-----------------------------------------------------------------|
B|----------1---------------1---------------1---------------1------|
G|--------------0---------------0---------------0---------------0--|
D|------2---------------2---------------2---------------2----------|
A|--3--------------------------------------------------------------|
E|------------------3---------------3---------------3--------------|

e|-----------------------------------------------------------------|
B|----------3---------------3---------------3---------------3------|
G|--------------3---------------3---------------3---------------3--|
D|------5---------------5---------------5---------------5----------|
A|------------------5-------------------------------5--------------|
E|--3-------------------------------3------------------------------|
                    how      the     boy      feels

e|-----------------------------------------------------------------|
B|----------1---------------1--------------------------------------|
G|--------------0---------------0----------------------------------|
D|------2---------------2------------------------------------------|
A|--3--------------------------------------------------------------|
E|------------------3---------------3------------------------------|

--CHORUS 1 END--

VERSE 2: (play exactly as verse 1)

Katherine kiss me
flick your cigarette then kiss me
flick your eyes at mine so briefly
your leather jacket lies in

e|----------2---------------2--------------------------------------|
B|--------------3---------------3----------------------------------|
G|------2---------------2------------------------------------------|
D|--0---------------0---------------0------------------------------|
A|-----------------------------------------------------------------|
E|-----------------------------------------------------------------|
    sticky pools of                 cider blackberry

CHORUS 2: (play exactly as chorus 1)

you glance and ricochet
eyes, like bubbles on the washing machine
mmm-mmm...
I wonder
how the boy feels

PIANO SOLO:

play exactly the same as verse 1 and then:

e|----------2---------------2--------------------------------------|
B|--------------3---------------3----------------------------------|
G|------2---------------2------------------------------------------|
D|--0---------------0---------------0------------------------------|
A|-----------------------------------------------------------------|
E|-----------------------------------------------------------------|

VERSE 3: (play exactly as verse 1)

Katherine kiss me
in the alleyway by [?]
jacket in the sodium light
yes I love you, I mean I

e|----------2---------------2--------------------------------------|
B|--------------3---------------3----------------------------------|
G|------2---------------2------------------------------------------|
D|--0---------------0---------------0------------------------------|
A|-----------------------------------------------------------------|
E|-----------------------------------------------------------------|
                    need to         love

CHORUS 3: (play exactly as chorus 1)

and though your opened eyes stay bored
upon the overflowing pipes above me
tonight, I don't mind
because I never wonder
how the girl feels.

--END--

That's it, enjoy!

===============================================================================
            
Submit corrections


        Katherine Kiss Me lessons Hard to play? Try these video lessons and learn fast Katherine Kiss Me lessons
        
↑ Back to top | Tablatures and chords for acoustic guitar and electric guitar, ukulele, drums are parodies/interpretations of the original songs. You may use it for private study, scholarship, research or language learning purposes only