» » »

Franz Ferdinand - Huck And Jim Tabs

Artists:  A B C D E F G H I J K L M N O P Q R S T U V W X Y Z # 

Huck And Jim Tabs

(ver. 1) Click to play this song!
Franz Ferdinand
 Rating:
4.4/5 (5 votes)

 Huck And Jim lessons Tabs too difficult? Try these video lessons and learn fast
 
                [Intro]
Guitar 1 
e|-----------------------------------------------------|
B|-----------------------------------------------------|
G|-----------------------------------------------------|
D|--/8~-8-8-8-10-8-7-7~-----7---7\5~-5-5-5-7-5-4-4~----|
A|----------------------8~----8---------------------5~-|
E|-----------------------------------------------------|

Guitar 2  
   Bb              F              Gm             D
e|--6----6-6----6--1----1-1----1--3----3-3----3--5----5-5----5--|
B|--6----6-6----6--1----1-1----1--3----3-3----3--7----7-7----7--|
G|--7----7-7----7--2----2-2----2--3----3-3----3--7----7-7----7--|
D|--8----8-8----8--3----3-3----3--5----5-5----5--7----7-7----7--|
A|--8----8-8----8--3----3-3----3--5----5-5----5--5----5-5----5--|
E|--6----6-6----6--1----1-1----1--3----3-3----3-----------------|

Guitar 1  
e|---------------------------------------------------------------------------|
B|------------------------------------------10-------------------------------|
G|---------------7-8-10~--7~-10-7-10/12~-12----12-11-11~---------------------|
D|--/8~-8-8-8-10-----------------------------------------12~-----------------|
A|---------------------------------------------------------------------------|
E|---------------------------------------------------------------------------|

Guitar 2     
   Bb              F              Gm             D
e|--6----6-6----6--1----1-1----1--3----3-3----3--5-------------|
B|--6----6-6----6--1----1-1----1--3----3-3----3--7-------------|
G|--7----7-7----7--2----2-2----2--3----3-3----3--7--let ring---|
D|--8----8-8----8--3----3-3----3--5----5-5----5--7-------------|
A|--8----8-8----8--3----3-3----3--5----5-5----5--5-------------|
E|--6----6-6----6--1----1-1----1--3----3-3----3----------------|

[Verse]
Normally the bass line but can be played with a guitar using the palm-mute technique.
Guitar 2  
e|------------------------------------------------|
B|------------------------------------------------|
G|------------------------------------------------|
D|------------------------------------------------|
A|---5--5--5--------------5--5--5-----------------|
E|------------6-6-6-6-6-6----------6-6-6-6-6-6----|
  PM .........................................

[Build-up]
Guitar 1       
e|--------------------------------------------------------------------------------|
B|--------------------------------------------------------------------------------|
G|--------------------------------------------------------------------------------|
D|--------------------------------------------------------------------------------|
A|--6-6-6-6-6-6-6-6-6-----------6-6-6-6-6-6-6-6-6-----------6-6-6-6-6-6-6-6-6-----|
E|--4-4-4-4-4-4-4-4-4-----------4-4-4-4-4-4-4-4-4-----------4-4-4-4-4-4-4-4-4-----|

Guitar 2  
e|--------------------5--5--5---------------------5--5--5-------------------------|
B|--------------------7--7--7---------------------7--7--7-------------------------|
G|--------------------7--7--7---------------------7--7--7-------------------------|
D|--6-6-6-6-6-6-6-6-6-7--7--7---6-6-6-6-6-6-6-6-6-7--7--7---6-6-6-6-6-6-6-6-6-----|
A|--6-6-6-6-6-6-6-6-6-5--5--5---6-6-6-6-6-6-6-6-6-5--5--5---6-6-6-6-6-6-6-6-6-----|
E|--4-4-4-4-4-4-4-4-4-----------4-4-4-4-4-4-4-4-4-----------4-4-4-4-4-4-4-4-4-----|

[Pre-Chorus]
Guitar 1    
    D                         Eb
e|--5--5--5--5--5--5--5-5-5-5-6--6--6--6--6--6-6-6-6-|
B|--7--7--7--7--7--7--7-7-7-7-8--8--8--8--8--8-8-8-8-|
G|--7--7--7--7--7--7--7-7-7-7-8--8--8--8--8--8-8-8-8-|
D|--7--7--7--7--7--7--7-7-7-7-8--8--8--8--8--8-8-8-8-|
A|--5--5--5--5--5--5--5-5-5-5-6--6--6--6--6--6-6-6-6-|
E|---------------------------------------------------|

Guitar 2  
e|---------------------------------------------------|
B|-------7~--------7~-------------8--10--11--10--8---|
G|--7--7----7----7-----7----7-8-8------------------8-|
D|---------------------------------------------------|
A|---------------------------------------------------|
E|---------------------------------------------------|

Guitar 1    
    D                         Eb
e|--5--5--5--5--5--5--5-5-5-5-6--6--6--6--6--6-6-6-6-|
B|--7--7--7--7--7--7--7-7-7-7-8--8--8--8--8--8-8-8-8-|
G|--7--7--7--7--7--7--7-7-7-7-8--8--8--8--8--8-8-8-8-|
D|--7--7--7--7--7--7--7-7-7-7-8--8--8--8--8--8-8-8-8-|
A|--5--5--5--5--5--5--5-5-5-5-6--6--6--6--6--6-6-6-6-|
E|---------------------------------------------------|

Guitar 2  
e|------------------------------------11-10----------|
B|-------7~--------7~-----------8--10-------11-10----|
G|--7--7----7----7-----7----7-8-------------------8--|
D|---------------------------------------------------|
A|---------------------------------------------------|
E|---------------------------------------------------|

[Chorus]
Guitar 1  
   Bb              F              Gm             D
e|--6----6-6----6--1----1-1----1--3----3-3----3--5----5-5----5--|
B|--6----6-6----6--1----1-1----1--3----3-3----3--7----7-7----7--|
G|--7----7-7----7--2----2-2----2--3----3-3----3--7----7-7----7--|
D|--8----8-8----8--3----3-3----3--5----5-5----5--7----7-7----7--|
A|--8----8-8----8--3----3-3----3--5----5-5----5-----------------|
E|--------------------------------------------------------------|

Guitar 2  
   Bb              F              Gm             D
e|--6----6-6----6--1----1-1----1--3----3-3----3--5----5-5----5--|
B|--6----6-6----6--1----1-1----1--3----3-3----3--7----7-7----7--|
G|--7----7-7----7--2----2-2----2--3----3-3----3--7----7-7----7--|
D|--8----8-8----8--3----3-3----3--5----5-5----5--7----7-7----7--|
A|--8----8-8----8--3----3-3----3--5----5-5----5--5----5-5----5--|
E|--6----6-6----6--1----1-1----1--3----3-3----3-----------------|

Guitar 1     
   Bb              F              Gm             D
e|--6----6-6----6--1----1-1----1--3----3-3----3--5-------------|
B|--6----6-6----6--1----1-1----1--3----3-3----3--7-------------|
G|--7----7-7----7--2----2-2----2--3----3-3----3--7--let ring---|
D|--8----8-8----8--3----3-3----3--5----5-5----5--7-------------|
A|--8----8-8----8--3----3-3----3--5----5-5----5----------------|
E|-------------------------------------------------------------|

Guitar 2     
   Bb              F              Gm             D
e|--6----6-6----6--1----1-1----1--3----3-3----3--5-------------|
B|--6----6-6----6--1----1-1----1--3----3-3----3--7-------------|
G|--7----7-7----7--2----2-2----2--3----3-3----3--7--let ring---|
D|--8----8-8----8--3----3-3----3--5----5-5----5--7-------------|
A|--8----8-8----8--3----3-3----3--5----5-5----5--5-------------|
E|--6----6-6----6--1----1-1----1--3----3-3----3----------------|

[Verse]
Guitar 2  
e|------------------------------------------------|
B|------------------------------------------------|
G|------------------------------------------------|
D|------------------------------------------------|
A|---5--5--5--------------5--5--5-----------------|
E|------------6-6-6-6-6-6----------6-6-6-6-6-6----|
  PM .........................................

[Build-up]
Guitar 1       
e|--------------------------------------------------------------------------------|
B|--------------------------------------------------------------------------------|
G|--------------------------------------------------------------------------------|
D|--------------------------------------------------------------------------------|
A|--6-6-6-6-6-6-6-6-6-----------6-6-6-6-6-6-6-6-6-6-6-6-6-6-6-6-6-6-6-6-6-6-6-----|
E|--4-4-4-4-4-4-4-4-4-----------4-4-4-4-4-4-4-4-4-4-4-4-4-4-4-4-4-4-4-4-4-4-4-----|

Guitar 2  
e|--4-4-4-4-4-4-4-4-4-5--5--5---4-4-4-4-4-4-4-4-4-4-4-4-4-4-4-4-4-4-4-4-4-4-4-----|
B|--4-4-4-4-4-4-4-4-4-7--7--7---4-4-4-4-4-4-4-4-4-4-4-4-4-4-4-4-4-4-4-4-4-4-4-----|
G|--5-5-5-5-5-5-5-5-5-7--7--7---5-5-5-5-5-5-5-5-5-5-5-5-5-5-5-5-5-5-5-5-5-5-5-----|
D|--6-6-6-6-6-6-6-6-6-7--7--7---6-6-6-6-6-6-6-6-6-6-6-6-6-6-6-6-6-6-6-6-6-6-6-----|
A|--6-6-6-6-6-6-6-6-6-5--5--5---6-6-6-6-6-6-6-6-6-6-6-6-6-6-6-6-6-6-6-6-6-6-6-----|
E|--4-4-4-4-4-4-4-4-4-----------4-4-4-4-4-4-4-4-4-4-4-4-4-4-4-4-4-4-4-4-4-4-4-----|

[Pre-Chorus]
Guitar 1    
    D                         Eb
e|--5--5--5--5--5--5--5-5-5-5-6--6--6--6--6--6-6-6-6-|
B|--7--7--7--7--7--7--7-7-7-7-8--8--8--8--8--8-8-8-8-|
G|--7--7--7--7--7--7--7-7-7-7-8--8--8--8--8--8-8-8-8-|
D|--7--7--7--7--7--7--7-7-7-7-8--8--8--8--8--8-8-8-8-|
A|--5--5--5--5--5--5--5-5-5-5-6--6--6--6--6--6-6-6-6-|
E|---------------------------------------------------|

Guitar 2  
e|---------------------------------------------------|
B|-------7~--------7~-------------8--10--11--10--8---|
G|--7--7----7----7-----7----7-8-8------------------8-|
D|---------------------------------------------------|
A|---------------------------------------------------|
E|---------------------------------------------------|

Guitar 1  
    D                         Eb
e|--5--5--5--5--5--5--5-5-5-5-6--6--6--6--6--6-6-6-6-|
B|--7--7--7--7--7--7--7-7-7-7-8--8--8--8--8--8-8-8-8-|
G|--7--7--7--7--7--7--7-7-7-7-8--8--8--8--8--8-8-8-8-|
D|--7--7--7--7--7--7--7-7-7-7-8--8--8--8--8--8-8-8-8-|
A|--5--5--5--5--5--5--5-5-5-5-6--6--6--6--6--6-6-6-6-|
E|---------------------------------------------------|

Guitar 2  
e|------------------------------------11-10----------|
B|-------7~--------7~-----------8--10-------11-10----|
G|--7--7----7----7-----7----7-8-------------------8--|
D|---------------------------------------------------|
A|---------------------------------------------------|
E|---------------------------------------------------|

[Chorus]
Guitar 1  
   Bb              F              Gm             D
e|--6----6-6----6--1----1-1----1--3----3-3----3--5----5-5----5--|
B|--6----6-6----6--1----1-1----1--3----3-3----3--7----7-7----7--|
G|--7----7-7----7--2----2-2----2--3----3-3----3--7----7-7----7--| x2
D|--8----8-8----8--3----3-3----3--5----5-5----5--7----7-7----7--|
A|--8----8-8----8--3----3-3----3--5----5-5----5-----------------|
E|--------------------------------------------------------------|

Guitar 2  
   Bb              F              Gm             D
e|--6----6-6----6--1----1-1----1--3----3-3----3--5----5-5----5--|
B|--6----6-6----6--1----1-1----1--3----3-3----3--7----7-7----7--|
G|--7----7-7----7--2----2-2----2--3----3-3----3--7----7-7----7--| x2
D|--8----8-8----8--3----3-3----3--5----5-5----5--7----7-7----7--|
A|--8----8-8----8--3----3-3----3--5----5-5----5--5----5-5----5--|
E|--6----6-6----6--1----1-1----1--3----3-3----3-----------------|

[Instrumental]
Guitar 1  
e|---------------------------------------------------------------------------|
B|------------------------------------------10-------------------------------|
G|---------------7-8-10~--7~-10-7-10/12~-12----12-11-11~---------------------|
D|--/8~-8-8-8-10-----------------------------------------12~-----------------|
A|---------------------------------------------------------------------------|
E|---------------------------------------------------------------------------|

Guitar 2    
   Bb              F              Gm             D
e|--6----6-6----6--1----1-1----1--3----3-3----3--5----5-5----5--|
B|--6----6-6----6--1----1-1----1--3----3-3----3--7----7-7----7--|
G|--7----7-7----7--2----2-2----2--3----3-3----3--7----7-7----7--| 
D|--8----8-8----8--3----3-3----3--5----5-5----5--7----7-7----7--|
A|--8----8-8----8--3----3-3----3--5----5-5----5--5----5-5----5--|
E|--6----6-6----6--1----1-1----1--3----3-3----3-----------------|

Guitar 1  
e|----------------------------------------------------------------------------------------------------------|
B|---------------------10----10-11-10--------10----10-11-10-------------------------------------------------|
G|--11----11-12~-12-12----12----------12~-12----12----------12~-12-11-12-11/13~-13/15~-15/17~-17-17-17/19~~-|
D|-----12---------------------------------------------------------------------------------------------------|
A|----------------------------------------------------------------------------------------------------------|
E|----------------------------------------------------------------------------------------------------------|

[Chorus]
Guitar 1  
   Bb              F              Gm             D
e|--6----6-6----6--1----1-1----1--3----3-3----3--5----5-5----5--|
B|--6----6-6----6--1----1-1----1--3----3-3----3--7----7-7----7--|
G|--7----7-7----7--2----2-2----2--3----3-3----3--7----7-7----7--| x2
D|--8----8-8----8--3----3-3----3--5----5-5----5--7----7-7----7--|
A|--8----8-8----8--3----3-3----3--5----5-5----5-----------------|
E|--------------------------------------------------------------|

Guitar 2  
   Bb              F              Gm             D
e|--6----6-6----6--1----1-1----1--3----3-3----3--5----5-5----5--|
B|--6----6-6----6--1----1-1----1--3----3-3----3--7----7-7----7--|
G|--7----7-7----7--2----2-2----2--3----3-3----3--7----7-7----7--| x2
D|--8----8-8----8--3----3-3----3--5----5-5----5--7----7-7----7--|
A|--8----8-8----8--3----3-3----3--5----5-5----5--5----5-5----5--|
E|--6----6-6----6--1----1-1----1--3----3-3----3-----------------|
            
Submit corrections


        Huck And Jim lessons Hard to play? Try these video lessons and learn fast Huck And Jim lessons
        
↑ Back to top | Tablatures and chords for acoustic guitar and electric guitar, ukulele, drums are parodies/interpretations of the original songs. You may use it for private study, scholarship, research or language learning purposes only