» » »

Franz Ferdinand - Doing Fine Tabs

Artists:  A B C D E F G H I J K L M N O P Q R S T U V W X Y Z # 

Doing Fine Tabs

(ver. 1) Click to play this song!
Franz Ferdinand
 Rating:
4.2/5 (30 votes)

 Doing Fine  lessons Tabs too difficult? Try these video lessons and learn fast
 
                [Intro/Chorus/Verse 1] Bass 0:00
e|----------------------------|
B|----------------------------|
G|----------------------------|
D|----------------------------| (x16)
A|----------------4-4-4-------|
E|-1--1-1-1-3-4---------4--6--|

[Filler] Guitar 1 0:08
e|--13---|
B|-------|
G|-------|
D|-------|
A|-------|
E|-------|

[Chorus 1] Guitar 1&2 0:17
   F
e|-----------------------------------|
B|---1-1-1-1-------3-3-3-5-3---------|
G|-3---------3-1-3-----------1-1h3---|
D|-----------------------------------| (x4)
A|-----------------------------------|
E|-----------------------------------|

[Filler] Guitar 1&2 At 0:39, 0:43, 0:48 and 0:52
    A#   G#
e|-----------|
B|-----------|
G|-----------|
D|--4/6--4---| (x4)
A|-----------|
E|-----------|

[Bridge 1] Guitar 1&2 0:53 (Bass plays the tabs like guitar 1)
    D#       C#       C#      D#      A#       F        G#      A#  Cm   (F)
e|---------------------------------|------------------------------------------|
B|---------------------------------|------------------------------------------|
G|---------------------------------|------------------------------------------|
D|---------------------------------|------------------------------------------|
A|--6-4-3-1--4-3-1----4-3-1--------|-----------1-3-4-6----------1-3-4-6--(7)--|
E|-----------------4--------4-/-6--|--4-6-8-9-----------4-6-8-9---------------|

[Chorus 2] Guitar 1&2 1:10 (Same as before, but i rather play it like this)
    F
e|------------------------------------|
B|------------------------------------|
G|------------------------------------|
D|----6-6-6-6-------8-8-8-10-8--------| (x4)
A|--8---------8-6-8------------6-6h8--|
E|------------------------------------|

[Chorus/Verse 2] Bass 1:10
e|----------------------------|
B|----------------------------|
G|----------------------------|
D|----------------------------| (x8)
A|----------------4-4-4-------|
E|-1--1-1-1-3-4---------4--6--|

[Filler] Guitar 1&2
    A#   G#
e|-----------|
B|-----------|
G|-----------|
D|--4/6--4---| x4
A|-----------|
E|-----------|

[Bridge 2] Guitar 1&2 1:46 (Bass plays the tabs like guitar 1)
    D#       C#       C#      D#      A#       F        G#      A#  Cm   (F)
e|---------------------------------|------------------------------------------|
B|---------------------------------|------------------------------------------|
G|---------------------------------|------------------------------------------|
D|---------------------------------|------------------------------------------|
A|--6-4-3-1--4-3-1----4-3-1--------|-----------1-3-4-6----------1-3-4-6--(7)--|
E|-----------------4--------4-/-6--|--4-6-8-9-----------4-6-8-9---------------|

[Chorus/Verse 3] Bass 2:06
e|----------------------------|
B|----------------------------|
G|----------------------------|
D|----------------------------| (x4)
A|----------------4-4-4-------|
E|-1--1-1-1-3-4---------4--6--|

[Filler] Guitar 1&2
    D#7
e|--3--x-x-x-x-x-x-x-x--|
B|--2--x-x-x-x-x-x-x-x--|
G|--3--x-x-x-x-x-x-x-x--|
D|----------------------| (x4)
A|----------------------|
E|----------------------|

[Bridge 3] Guitar 1&2 1:46 (Bass plays the tabs like guitar 1)
    D#       C#       C#      D#      A#       F        G#      A#  Cm   (F)
e|---------------------------------|-------------------------------------|
B|---------------------------------|-------------------------------------|
G|---------------------------------|-------------------------------------|
D|---------------------------------|-------------------------------------| (x2)(Keep repeating the 2nd part at
A|--6-4-3-1--4-3-1----4-3-1--------|-----------1-3-4-6----------1-3-4-6--|     the second time playing, then
E|-----------------4--------4-/-6--|--4-6-8-9-----------4-6-8-9----------|     end with a F chord)            
Submit corrections


        Doing Fine  lessons Hard to play? Try these video lessons and learn fast Doing Fine  lessons
        
↑ Back to top | Tablatures and chords for acoustic guitar and electric guitar, ukulele, drums are parodies/interpretations of the original songs. You may use it for private study, scholarship, research or language learning purposes only