» » »

Frank Sinatra - My Way Bass

Artists:  A B C D E F G H I J K L M N O P Q R S T U V W X Y Z # 

My Way Bass

(ver. 1) Click to play this song!
Frank Sinatra
 Rating:
4.3/5 (16 votes)

 My Way lessons Tabs too difficult? Try these video lessons and learn fast
 
                Tuning: EADG

G|----------------------------------------------------------------|
D|----------------------------------------------------------------|
A|5-----------5---5---------------5-----------5---5---------------|
E|----------------------------------------------------------------|

0:07

G|----------------------------------------------------------------|
D|----------------------------------------------------------------|
A|5-----------5---5---------------4-----------4---4---------------|
E|----------------------------------------------------------------|

G|----------------------------------------------------------------|
D|----------------------------------------------------------------|
A|3-----------3---3---------------2-----------2---2---2---4---6---|
E|----------------------------------------------------------------|

G|----------------------------------------------------------------|
D|----------------------------------------------------------------|
A|7-----------7---7---------------5-----------5---5---------------|
E|----------------------------------------------------------------|

G|----------------------------------------------------------------|
D|----------------------------------------------------------------|
A|4-----------4---4---------------5-----------5---5-----5---------|
E|------------------------5-------------------------------5---5---|

0:32

G|----------------------------------------------------------------|
D|----------------------------------------------------------------|
A|5-----------5---5---------------5-----------5---5-----------5---|
E|----------------------------------------------------------------|

G|----------------------------------------------------------------|
D|5-------------------------------------------------------4---5---|
A|------------5---5---------------7-----------7---7---7-----------|
E|----------------------------------------------------------------|

G|----------------------------------------------------------------|
D|7---------------------------7---7-------------------------------|
A|----------------------------------------------------------------|
E|------------5---5---------------------------5---5-------5-------|

G|----------------------------------------------------------------|
D|--------------------------------------------7-------------------|
A|5-----------5---5---------------5-------------------------------|
E|------------------------------------------------5-----5-5---5---|

0:58

G|----------------------------------------------------------------|
D|----------------------------------------------------------------|
A|5-----------5---5---------------4-----------4---4---------------|
E|----------------------------------------------------------------|

G|----------------------------------------------------------------|
D|----------------------------------------------------------------|
A|3-----------3---3---------------2-----------2---2---2---4---6---|
E|----------------------------------------------------------------|

G|----------------------------------------------------------------|
D|----------------------------------------------------------------|
A|7-----------7---7---------------5-----------5---5---------------|
E|----------------------------------------------------------------|

G|----------------------------------------------------------------|
D|----------------------------------------------------------------|
A|4-----------4---4---------------5-----------5---5-----5---------|
E|------------------------5-------------------------------5---5---|

1:22

G|----------------------------------------------------------------|
D|----------------------------------------------------------------|
A|5-----------5---5---------------5-----------5---5-----------5---|
E|----------------------------------------------------------------|

G|----------------------------------------------------------------|
D|5-----------5---5-----------------------------------------------|
A|--------------------------------7-----------7---7---------------|
E|--------------------------------------------------------7-------|

G|----------------------------------------------------------------|
D|7---------------------------7---7-------------------------------|
A|----------------------------------------------------------------|
E|------------5---5---------------------------5---5-------5-------|

G|----------------------------------------------------------------|
D|--------------------------------------------7---7---------------|
A|5-----------5---5---------------5-------------------------------|
E|----------------------------------------------------5---5---5---|

1:47

G|----------------------------------------------------------------|
D|----------------7---------------------------7---7---------------|
A|5---5---------------5-------5---5-------------------5---5---5---|
E|----------------------------------------------------------------|

G|----------------------------------------------------------------|
D|5---------------------------5---5-----------5---5---5---4---4---|
A|------------5---5---5-------------------------------------------|
E|----------------------------------------------------------------|

G|----------------------------------------------------------------|
D|------------------------4---5---7-----------7---7---7---5---5---|
A|7-----------7---7---7-------------------------------------------|
E|----------------------------------------------------------------|

G|----------------------------------------------------------------|
D|4-----------4---4---4-------4-----------------------------------|
A|--------------------------------2-----------2---2---2-----------|
E|----------------------------------------------------------------|

G|----------------------------------------------------------------|
D|------------------------4---5---7-------------------------------|
A|7-----------7---7---7-------------------------------------------|
E|------------------------------------5---5---5---5---5---5---5---|

G|----------------------------------------------------------------|
D|--------------------------------------------7---7---------------|
A|5-----------5---5---5-------5---5-------------------------------|
E|------------------------------------------------------5---5-5---|

2:25

G|----------------------------------------------------------------|
D|----------------------------------------------------------------|
A|5-----------5---5---------------4-----------4---4---------------|
E|----------------------------------------------------------------|

G|----------------------------------------------------------------|
D|----------------------------------------------------------------|
A|3-----------3---3---------------2-----------2---2---2---4---6---|
E|----------------------------------------------------------------|

G|----------------------------------------------------------------|
D|----------------------------------------------------------------|
A|7-----------7---7---------------5-----------5---5---------------|
E|----------------------------------------------------------------|

G|----------------------------------------------------------------|
D|----------------------------------------------------------------|
A|4-----------4---4---------------5-----------5---5-----5---------|
E|------------------------5-------------------------------5---5---|

2:50

G|----------------------------------------------------------------|
D|----------------------------------------------------------------|
A|5-----------5---5---------------5-----------5---5-----------5---|
E|----------------------------------------------------------------|

G|----------------------------------------------------------------|
D|5-----------5---5-----------------------------------------------|
A|--------------------------------7-----------7---7---------------|
E|--------------------------------------------------------7-------|

G|----------------------------------------------------------------|
D|7---------------------------7---7-----------7-------------------|
A|----------------------------------------------------------------|
E|------------5---5-------------------------------5-----5-5---5---|

G|----------------------------------------------------------------|
D|--------------------------------------------7-------------------|
A|5-----------5---5---------------5-------------------------------|
E|------------------------------------------------5---5---5---5---|

3:15

G|----------------------------------------------------------------|
D|------------------------7---7-----------------------------------|
A|5-----------5---5---------------5-----------5---5---5-------5---|
E|----------------------------------------------------------------|

G|----------------------------------------------------------------|
D|5-----------5---5---------------5-----------5---5---5---4---4---|
A|------------------------5---5-----------------------------------|
E|----------------------------------------------------------------|

G|----------------------------------------------------------------|
D|--------------------4---5-----------------------5-------5-------|
A|7-----------7---7-----------7-----------------------------------|
E|--------------------------------5-----------5-------------------|

G|----------------------------------------------------------------|
D|4-----------4---4---5---7---4-----------------------------------|
A|--------------------------------2-----------2---2---------------|
E|----------------------------------------------------------------|

G|----------------------------------------------------------------|
D|----------------------------4-----5-----7-----------------------|
A|7-----------7---7-----7-----------------------------------------|
E|----------------------------------------------------------------|

G|----------------------------------------------------------------|
D|----------------------------------------------------------------|
A|------------------------5---------------------------------------|
E|----------------------------------------------------------------|

G|----------------------------------------------------------------|
D|----------------------------------------------------------------|
A|----------------------------5-----------------------------------|
E|----------------------------------------------------------------|

G|----------------------------|
D|------------------------5---|
A|----------------------------|
E|----------------------------|            
Submit corrections


        My Way lessons Hard to play? Try these video lessons and learn fast My Way lessons
        
↑ Back to top | Tablatures and chords for acoustic guitar and electric guitar, ukulele, drums are parodies/interpretations of the original songs. You may use it for private study, scholarship, research or language learning purposes only