» » »

Frank Ocean - Be Yourself Tabs

Artists:  A B C D E F G H I J K L M N O P Q R S T U V W X Y Z # 

Be Yourself Tabs

(ver. 2) Click to play this song!
Frank Ocean
 Rating:
4.3/5 (28 votes)

 Be Yourself lessons Tabs too difficult? Try these video lessons and learn fast
 
                e|-------0----------------------------------------|
B|-------------3--------------0--0--------0--0----|
G|----0-----------0--2--0--2-----------2--------2-|
D|-------2--0--------2--0--------2--0--------2-(0)|
A|------------------------------------------------|
E|-3-----------3-----------3-----------3----------|

e|-------0----------------------------------------|
B|-------------3--------------0--0--------0-------|
G|----0-----------0--2--0--2-----------2-----2--0-|
D|-------2--0--------2--0--------2--0--------2-(0)|
A|------------------------------------------------|
E|-3-----------3-----------3-----------3----------|

e|-------0------------------------------------------|
B|-------------3--------------0---------------------|
G|----0-----------0--2--0--2-----0-----0--0-------0-|
D|-------2--0--------2--0--------2--0--------0h2-(0)|
A|-3-----------3-----------3-----------3------------|
E|--------------------------------------------------|

e|-------0-------------------------------------------|
B|-------------3--------------0----------------------|
G|----0-----------0--2--0--2-----0-----0--0------0h2-|
D|-------2--0--------2--0--------2--0--------0h2-(0)-|
A|-3-----------3-----------3-----------3-------------|
E|---------------------------------------------------|

            
Submit corrections


        Be Yourself lessons Hard to play? Try these video lessons and learn fast Be Yourself lessons
        
↑ Back to top | Tablatures and chords for acoustic guitar and electric guitar, ukulele, drums are parodies/interpretations of the original songs. You may use it for private study, scholarship, research or language learning purposes only