» » »

Frank Ocean - Be Yourself Tabs

Artists:  A B C D E F G H I J K L M N O P Q R S T U V W X Y Z # 

Be Yourself Tabs

(ver. 1) Click to play this song!
Frank Ocean
 Rating:
4.3/5 (16 votes)

 Be Yourself  lessons Tabs too difficult? Try these video lessons and learn fast
 
                [Intro]

C |---------------------------------------------------------------------------|
G |-----9----7----------------------------------------------------------------|
E |------------------------7-7--------7---------------------------------------|
C |---7----------9----9------------9-----9-7----------------------------------|
G |-0------0---0---0-----------0----------------------------------------------|
C |---------------------------------------------------------------------------|

C |---------------------------------------------------------------------------|
G |-----9----7----------------------------------------------------------------|
E |------------------------7-7--------7---------------------------------------|
C |---7----------9----9------------9-----9-7----------------------------------|
G |-0------0---0---0-----------0----------------------------------------------|
C |---------------------------------------------------------------------------|

C |---------------------------------------------------------------------------|
G |-----9----7----------------------------------------------------------------|
E |------------------------7-7--------7---------------------------------------|
C |---7----------9----9------------9-----9-7----------------------------------|
G |-5------5---5---5-----------5----------------------------------------------|
C |---------------------------------------------------------------------------|

C |---------------------------------------------------------------------------|
G |-----9----7----------------------------------------------------------------|
E |------------------------7-7--------7---------------------------------------|
C |---7----------9----9------------9-----9-7----------------------------------|
G |-0------0---0---0-----------0----------------------------------------------|
C |---------------------------------------------------------------------------|            
Submit corrections


        Be Yourself  lessons Hard to play? Try these video lessons and learn fast Be Yourself  lessons
        
↑ Back to top | Tablatures and chords for acoustic guitar and electric guitar, ukulele, drums are parodies/interpretations of the original songs. You may use it for private study, scholarship, research or language learning purposes only