» » »

Francis Rossi - Give Myself To Love Tabs

Artists:  A B C D E F G H I J K L M N O P Q R S T U V W X Y Z # 

Give Myself To Love Tabs

(ver. 1) Click to play this song!
Francis Rossi
 Rating:
4.2/5 (5 votes)

 Give Myself To Love lessons Tabs too difficult? Try these video lessons and learn fast
 
                Give Myself To Love 
Francis Rossi
King Of The Doghouse 1996



E|------------------------------------------------------------------------|
B|------------------------------------------------------------------------|
G|-8-------------------8--------------------8-----------------8-----------|
D|---11-9----------------11-9------11-9-------11-9--------------11-9------|
A|--------11-9-11-------------11-9-----------------11-9-11-----------11-9-|
E|------------------------------------------------------------------------|

E|---------7-|
B|---------7-|
G|------8b---|
D|-11-9------|
A|-----------|
E|-----------|

                 E
If you take my hand 
              F#
maybe we'll dance
         G#m
just a little bit
           F#  E
Don't feel reserved there's no
          F#
place on Earth
       G#m
for a girl like this...


At 1:25 there's a riff that goes

E|--------|
B|--------|
G|--------|
D|---4-6~-|
A|-6------|
E|--------|

You get the idea...
            
Submit corrections


        Give Myself To Love lessons Hard to play? Try these video lessons and learn fast Give Myself To Love lessons
        
↑ Back to top | Tablatures and chords for acoustic guitar and electric guitar, ukulele, drums are parodies/interpretations of the original songs. You may use it for private study, scholarship, research or language learning purposes only