» » »

Francisco Tarrega - Capricho Arabe Tabs

Artists:  A B C D E F G H I J K L M N O P Q R S T U V W X Y Z # 

Capricho Arabe Tabs

(ver. 2) Click to play this song!
Francisco Tarrega
 Rating:
4.3/5 (6 votes)

 Capricho Arabe lessons Tabs too difficult? Try these video lessons and learn fast
 
                [Intro]
3/4 timing
e|-----|-15p12--10p9--12p10--6p5--8p6------|---------|----|
B|-----|-------------------------------8p5-|-5---3-5-|-2--|
G|-----|-----------------------------------|-----3---|-2--|
D|-(7)-|-----------------------------------|-----5---|-2--|
A|-(7)-|-----------------------------------|---------|-0--|
D|-(7)-|-----------------------------------|---------|----|

e|-----|-15p12--10p9--12p10--6p5--8p6------|---------|----|
B|-----|-------------------------------8p5-|-5---3-5-|-2--|
G|-----|-----------------------------------|-----3---|-2--|
D|-(7)-|-----------------------------------|-----5---|-2--|
A|-(7)-|-----------------------------------|---------|-0--|
D|-(7)-|-----------------------------------|---------|----|

4/4 timing                                                                     ^
e|-----------|-------------|-------------------------------------------------|--------|
B|-----------|-------------|-------------------------------------------------|--------|
G|-----------|-------------|-------------------------------------------------|--------|
D|-------2-5-|/8--7/14--12-|-11-12-14-12-11-8-7-10-8-7-5-3-2-0---------------|--------|
A|-0---4-----|-------------|-----------------------------------4-1-0---------|--------|
D|-----------|-------------|-----------------------------------------5-3-2-0-|/8---7--|

[Verse]
e|-----------------|-----------------|
B|---3---3---2---2-|---3---3---2-----|
G|---2---2---2---2-|---2---2---2-----|
D|---3-3---2-----5-|---3-3---2-----7-|
A|-------------0---|-------------0---|
D|-0---------------|-0---------------|

e|-5---5-------5--6h8p6-5-6-8-|-5---5-------5--6h8p6-5-6-8-|
B|---6---6---8----------------|---6---6---8----------------|
G|----------------------------|----------------------------|
D|---7---7--------------------|---7---7--------------------|
A|-----8---7------0-----------|-----8---7------0-----------|
D|-0--------------------------|-0--------------------------|

e|-8p5---5-----------7-9-10-12-|/13-13p12-10------9h12-9-----------|
B|-----6---6---9-10------------|----10-------10----------11-8------|
G|-----------------------------|----10-------10---------------9----|
D|-----7---7-------------------|--------------------------------11-|
A|-------8---7-------0---------|----------0-----7--------0---------|
D|-0---------------------------|-0---------------------------------|

e|--------------------------|-----------------5-8-11-10-|
B|-10---10-----8p6--5-6-8p5-|-6---7---------7-----------|
G|----7----7----------------|---7---5-----5-------------|
D|----7----7----------------|---7---7---7---------------|
A|------8----7------0-------|---------5-----------------|
D|-0------------------------|-0-------------------------|

e|-8h10--6-------6p5--10p9--12p10--13p12-|-15p12--10p9--12p10--6p5-8p6--------------|
b|-------8-10-8--------------------------|------------------------------8-5---------|
G|-0----------9--------------------------|----------------------------------7---6---|
D|---------8-----------------------------|------------------------------------8---7-|
A|---------------0-----------------------|-0------------------------------------0---|
D|---------------------------------------|------------------------------------------|

e|-----------------|-----------------|
B|---3---3---4---2-|---3---3---4---2-|
G|-----------0---2-|-----------0---2-|
D|---3---3-------2-|---3---3-------2-|
A|-----1-------0---|-----1-------0---|
D|-0-------1-------|-0-------1-------|

e|-5---5-------5--6h8p6-5-6-8-|-5---5-------5--6h8p6-5-6-8-|
B|---6---6---8----------------|---6---6---8----------------|
G|----------------------------|----------------------------|
D|---7---7--------------------|---7---7--------------------|
A|-----8---7------0-----------|-----8---7------0-----------|
D|-0--------------------------|-0--------------------------|

e|-8p5---5-----------7-9-10-12-|/13-13p12-10------9h12-9-----------|
B|-----6---6---9-10------------|----10-------10----------11-8------|
G|-----------------------------|----10-------10---------------9----|
D|-----7---7-------------------|--------------------------------11-|
A|-------8---7-------0---------|----------0-----7--------0---------|
D|-0---------------------------|-0---------------------------------|

e|--------------------------|-----------------5-8-11-10-|
B|-10---10-----8p6--5-6-8p5-|-6---7---------7-----------|
G|----7----7----------------|---7---5-----5-------------|
D|----7----7----------------|---7---7---7---------------|
A|------8----7------0-------|---------5-----------------|
D|-0------------------------|-0-------------------------|

e|-8h10--6-------6p5--10p9--12p10--13p12-|-15p12--10p9--12p10--6p5-8p6--------------|
b|-------8-10-8--------------------------|------------------------------8-5---------|
G|-0----------9--------------------------|----------------------------------7---6---|
D|---------8-----------------------------|------------------------------------8---7-|
A|---------------0-----------------------|-0------------------------------------0---|
D|---------------------------------------|------------------------------------------|

e|-----------------|-----------------|
B|---3---3---4---2-|---3---3---3---5-|
G|-----------0---2-|-----------3---3-|
D|---3---3-------2-|---3---3-------5-|
A|-----1-------0---|-----1-------3---|
D|-0-------1-------|-0-------5-------|

[Chorus]
e|---5---5----------------------|------------------5-6h8p6-5---|
B|---6---6----3-5-6-5h6p5---3-5-|-3h5p3----------8-----------8-|
G|-5---5------------------5-----|-------5---5--------5---------|
D|----------5-------------------|-------7---7--5---------------|
A|-----3------------3-----------|---------3--------------------|
D|-3----------------------------|-3----------------------------|

e|-8------------------------|-3h5p3--------------0---------|
B|-----6--------5-6h8p6-5---|---------1--------3---3p1-----|
G|---5---5----7-----------7-|-------5---3----3---------3---|
D|---7---7------------------|-----------2------------------|
A|-0--------5---------------|-3------------3-------------3-|
D|----------------5---------|------------------------------|

e|---5---5----------------------|----------------------------6-|
B|---6---6----3-5-6-5h6p5---3-5-|-3h5p3----------------5h6-8---|
G|-5---5------------------5-----|-------5---5------5h7---------|
D|----------5-------------------|-------7---7----8-----5-------|
A|-----3------------3-----------|-3-------3--------------------|
D|-3----------------------------|--------------5---------------|

e|-6h8p6p5------------10p6---0-------|---------0----9-12----6p3-0---------|
B|---------5-----5---------8---3-----|-------2---10---------------3-------|
G|---------6-----6---------------3p0-|-----2------------------------3p0---|
D|-----------(7)---------------------|---2------------------------------2-|
A|-0----------------0----------------|-0------------------0---------------|
D|-----------------------------------|------------------------------------|

e|---------0-5-5-5-5---------------|------------------------------------|
B|-------2-------------------------|---------------0-1-2-3-4-5-6-7-8-9--|
G|-----2---------------------------|-------0-1-2-3----------------------|
D|---2-------------------------0-1-|-2-3-4------------------------------|
A|-0-----------------0-1-2-3-4-----|------------------------------------|
D|---------------------------------|------------------------------------|

[Bridge]
e|--------------7-9-10--9h10p9----7-9-|-7h9p7--------------2-3h5p3-2---|
B|-10---10---------------------10-----|-------10---10----5-----------5-|
G|----7----7--------------------------|-------7----7-------------------|
D|----7----7------------7-------------|----------------2---------------|
A|-------9----7-----------------------|----------9-----------0---------|
D|-0----------------------------------|-0------------------------------|

e|-5------------------------|------------4h5--9p7---0-|
B|-----3--------2-3h5p3-2---|-5-------------------8---|
G|---2---2----4-----------4-|-----2-------------------|
D|-----4----------2---------|---2---2-----------------|
A|--------------------------|-0---4----0--------------|
D|-0--------2---------------|-------------------------|

e|--------------7-9-10-9h10p9----7-9-|-7h9p7--------------------------8-|
B|-10---10--------------------10-----|-------10---10-------------7-10---|
G|----7----7-------------------------|-------7----7------------8--------|
D|----7----7-----------7-------------|--------------------7h10----------|
A|------9-----7----------------------|----------9-----6h9---------------|
D|-0---------------------------------|-0--------------------------------|

e|-9---9-------14p12-10-------0---|----------------------|
B|----------------------12------3-|-3p2-2/12--12p10-10-8-|
G|---9---9-----------------13-----|----------------------|
D|-----7--------------------------|----------------------|
A|-7-------(7)--------------------|-0--------------------|
D|--------------------------------|----------------------|

e|------------------|-------------------------|
B|-8p7--7-----------|----------------------10-|
G|--------9--9p7--7-|-------------------------|
D|------------------|-11--11p9--9p8--8-7-7----|
A|------------------|-------------------------|
D|------------------|-------------------------|

e|--------------7-9-10--9h10p9----7-9-|-7h9p7--------------2-3h5p3-2---|
B|-10---10---------------------10-----|-------10---10----5-----------5-|
G|----7----7--------------------------|-------7----7-------------------|
D|----7----7------------7-------------|----------------2---------------|
A|-------9----7-----------------------|----------9-----------0---------|
D|-0----------------------------------|-0------------------------------|

e|-5------------------------|------------4h5--9p7---0-|
B|-----3--------2-3h5p3-2---|-5-------------------8---|
G|---2---2----4-----------4-|-----2-------------------|
D|-----4----------2---------|---2---2-----------------|
A|--------------------------|-0---4----0--------------|
D|-0--------2---------------|-------------------------|

e|--------------7-9-10-9h10p9----7-9-|-7h9p7--------------------------8-|
B|-10---10--------------------10-----|-------10---10-------------7-10---|
G|----7----7-------------------------|-------7----7------------8--------|
D|----7----7-----------7-------------|--------------------7h10----------|
A|------9-----7----------------------|----------9-----6h9---------------|
D|-0---------------------------------|-0--------------------------------|

e|-9---9-------14p12-10-------0---|----------------------|
B|----------------------12------3-|-3p2-2/12--12p10-10-8-|
G|---9---9-----------------13-----|----------------------|
D|-----7--------------------------|----------------------|
A|-7-------(7)--------------------|-0--------------------|
D|--------------------------------|----------------------|
               ^ 
e|---------2-5/12---10-|-10h12p10--0-----0--|
B|-------3-------------|-----------0-----0--|
G|-----2---------------|-0------------------|
D|-0h4-----------------|--------------------|
A|---------------------|--------------------|
D|---------------------|--------------5-----|

e|---------------|-----------------|
B|---0-2-3/10--8-|-8h10p8--7-----5-|
G|---------------|---------------6-|
D|-------------9-|-9-------7-----5-|
A|---------------|-0----------0----|
D|-2-------------|-----------------|

[Verse]
e|-----------0-----|-----------------|
B|-3-----3---0---2-|---3---3---4---2-|
G|---2-------0---0-|-----------0---2-|
D|---4---4---------|---3---3-------2-|
A|-----2-------0---|-----1-------0---|
D|-0-------5-------|-0-------1-------|

e|-5---5-------5--6h8p6-5-6-8-|-5---5-------5--6h8p6-5-6-8-|
B|---6---6---8----------------|---6---6---8----------------|
G|----------------------------|----------------------------|
D|---7---7--------------------|---7---7--------------------|
A|-----8---7------0-----------|-----8---7------0-----------|
D|-0--------------------------|-0--------------------------|

e|-8p5---5-----------7-9-10-12-|/13-13p12-10------9h12-9-----------|
B|-----6---6---9-10------------|----10-------10----------11-8------|
G|-----------------------------|----10-------10---------------9----|
D|-----7---7-------------------|--------------------------------11-|
A|-------8---7-------0---------|----------0-----7--------0---------|
D|-0---------------------------|-0---------------------------------|

e|--------------------------|-----------------5-8-11-10-|
B|-10---10-----8p6--5-6-8p5-|-6---7---------7-----------|
G|----7----7----------------|---7---5-----5-------------|
D|----7----7----------------|---7---7---7---------------|
A|------8----7------0-------|---------5-----------------|
D|-0------------------------|-0-------------------------|

e|-8h10--6-------6p5--10p9--12p10--13p12-|-15p12--10p9--12p10--6p5-8p6--------------|
b|-------8-10-8--------------------------|------------------------------8-5---------|
G|-0----------9--------------------------|----------------------------------7---6---|
D|---------8-----------------------------|------------------------------------8---7-|
A|---------------0-----------------------|-0------------------------------------0---|
D|---------------------------------------|------------------------------------------|

[Outro]
e|-----------------|-----------------|
B|---3---3---4---2-|---3---3---4---2-|
G|-----------0---2-|-----------0---2-|
D|---3---3-------2-|---3---3-------2-|
A|-----1-------0---|-----1-------0---|
D|-0-------1-------|-0-------1-------|

e|--------10--|
B|--------10--|
G|--------10--|
D|-(12)---0---|
A|-(12)-------|
D|-(12)-------|            
Submit corrections


        Capricho Arabe lessons Hard to play? Try these video lessons and learn fast Capricho Arabe lessons
        
↑ Back to top | Tablatures and chords for acoustic guitar and electric guitar, ukulele, drums are parodies/interpretations of the original songs. You may use it for private study, scholarship, research or language learning purposes only