» » »

Francisco Tarrega - Etude In The Form Of A Minuet Tabs

Artists:  A B C D E F G H I J K L M N O P Q R S T U V W X Y Z # 

Etude In The Form Of A Minuet Tabs

(ver. 1) Click to play this song!
Francisco Tarrega
 Rating:
3.8/5 (5 votes)

 Etude In The Form Of A Minuet lessons Tabs too difficult? Try these video lessons and learn fast
 
                Study: Minuet -  Estudio en Forma de Minueto (Study in Minuet Form)
Took from tabledit version demo

"Interesting piece and study by Tarrega, is a little fast
and hard but a really good exercise for both hands"
                                                   .-Carlos.

Key: A major
Time: 3/4
Tablature explanation at the end.


E|-----------------------------9-10-|-12--5h7-9p7-10p9-7----|---------|
B|--10-12-10-9-10------9-10-12------|--------------------10-|-10----9-|
G|*---------------9-11--------------|-----------------------|-7-----7-|
D|*---------------------------------|-----------------------|---------|
A|----------------------------------|-----------------------|-------7-|
E|----------------------------------|-----------------------|-0-------|


E|-7-9-7-6-7------7-9-10-12-13-|-14--7h9-10p9-12p10-9----|----------|
B|-----------9-10--------------|----------------------12-|-12----10-|
G|-----------------------------|-------------------------|----------|
D|-----------------------------|-------------------------|-12----11-|
A|-----------------------------|-------------------------|-------0--|
E|-----------------------------|-------------------------|-0--------|



E|-0-5-0-----0-------------|-------------0-1-2---------|----0-------|
B|-------3-2---2-0---------|-2p0---0-2-3-------3-2-3-0-|-2----2---0-|
G|-----------------2-1-2-3-|-----3---------------------|--------2-1-|
D|-------------------------|-0-----------------0-------|-2--------0-|
A|-------------------------|---------------------------|------------|
E|-------------------------|---------------------------|-0--------0-|



E|---------| |--4p3-4h5-7p4-4p0-0-------|--------------------|
B|-0-------| |--0-----------------0-0-5-|-5-4-4-2-4----------|
G|-1----2-*| |*-------------------------|-2------------------|
D|-0------*| |*-------------------------|----------------1-2-|
A|-0----4--| |--------------------------|------------2-4-----|
E|------5--| |--0-----------------------|-2------------------|



E|----------------2-5-9-|-9-7---0---------|-4p3-3h5-7p0-------4-5-7-|
B|---0--------0-4-------|-----9---0-------|-0-----------4-5-7-------|
G|----------2-----------|-----------------|-------------------------|
D|-4----1-4-------------|---------6-------|-------------------------|
A|----------------------|-----------------|-------------------------|
E|----------------------|-0----------<12>-|-0-----------------------|



E|-8h9-4h5-1h2-------------|-------0-4p0-----------2-|-2----0--|
B|-------------1-2---------|-----0-------0---2-4-4---|-4----0--|
G|-----------------2-------|---1-----------1-2-------|-2----1-*|
D|-------------------------|-------------------------|------2-*|
A|-0-----------------------|-2---------------2-------|---------|
E|-------------------2-4-5-|-------------------------|-0-------|


E|-0-12p9----0-9p5-0---5p0---|-------------0-1-2---------|---0-------|--------|
B|--------10---------2-----2-|-2p0---0-2-3-------3-2-3-0-|-2---2---0-|-0------|
G|---------------------------|-----3---------------------|-------2-1-|-1----2-|
D|---------------------------|-0-----------------0-------|-2-------0-|-0------|
A|---------------------------|---------------------------|-----------|-0----4-|
E|---------------------------|---------------------------|-0-------0-|------5-|
                                                                           fine.


end tab: 27/01/01
Enjoy!!

Tablature Explanation:
~~~~~~~~~~~~~~~~~~~~~~
                                                             cx------/

E-|----------| |-------|-------|----(7----|-------|---------|---------|
B-|----------| |-------|-------|----)7----|-------|---------|---------|
G-|*-repeat-*| |--3/9--|--5p3--|----(5----|--1h3--|--<12>---|---------|
D-|*--------*| |-------|-------|----)6----|-------|---------|---------|
A-|----------| |-------|-------|----(6----|-------|---------|---------|
E-|----------| |-------|-------|----)7----|-------|---------|---------|
                 slur    pull    arpegiate  hammer  harmonic   bar on
                         off                on                 x fret

......................................................_

B-|---Tab-by:-Carlos-Cordero-----------------------|
D-|---Look-More-Classical-Guitar-Tabs-at:----------|
E-|---Send-your-comments-and-questions-------------|
......................................................_
            
Submit corrections


        Etude In The Form Of A Minuet lessons Hard to play? Try these video lessons and learn fast Etude In The Form Of A Minuet lessons
        
↑ Back to top | Tablatures and chords for acoustic guitar and electric guitar, ukulele, drums are parodies/interpretations of the original songs. You may use it for private study, scholarship, research or language learning purposes only