Home » F » Frames »

Frames - Headlong Tabs

Artists:  A B C D E F G H I J K L M N O P Q R S T U V W X Y Z # 

Headlong Tabs

(ver. 2) Click to play this song!
Frames
Started the work as a request to my own forum post. 
Something twigged as I was writing the post. 
This is the rhythm guitar part to this version only at this stage. 
If I have time or someone else works it out you'll get the lead guitar part later. 

It starts at about 5:30 into the clip

h = hammer on
s = slide
(Sure you all know that anyway)
The rhythm guitar is tuned to D. I'm leaving the strumming pattern up to you.
The chorus riff has 4 chords very close together. 
This is all played in the same time space as the equivalent chord in the verse riff. 
Hope you Enjoy.



VERSE RIFF:

D-|-0-0-0-0-(0)-5-5-5-5-|
A-|-0-0-0-0-(0)-5-5-5-5-|
F#|-0-0-0-0-(0)-7-5-7-5-|
D-|-0-0-0-0-(0)-7-7-7-7-|
A-|-0-2-4-2-(0)-5-5-5-5-|
D-|-0-0-0-0-(0)-5-5-5-5-|


CHORUS RIFF:

D-|-0-0-0-0000-5-5-5-5-|
A-|-0-0-0-0000-5-5-5-5-|
F#|-0-0-0-0000-7-5-7-5-|
D-|-0-0-0-0000-7-7-7-7-|
A-|-0-2-4-2457-5-5-5-5-|
D-|-0-0-0-0000-5-5-5-5-|


BRIDGE:

D-|--------------------|---------------------|-5-5-5-5
A-|--------------------|---------------------|-5-5-5-5
F#|--------3-----------|--------3------------|-7-5-7-5
D-|---------4----------|---------4-4-4h5-5s7-|-7-7-7-7
A-|---54-------54-5s7-5|---54----------------|-5-5-5-5
D-|-00---00--00--0---0-|-00---00--0-0---0---0|-5-5-5-5


OUTRO:

D-|-0-  Till the end chord...   -5-||
A-|-0-  Till the end chord...   -5-||
F#|-0-  Till the end chord...   -7-||
D-|-0-  Till the end chord...   -7-||
A-|-0-  Till the end chord...   -5-||
D-|-0-  Till the end chord...   -5-||


ORDER OF PLAY:

Verse
Verse
Chorus
Verse
Verse
Chorus
Chorus
Bridge
Chorus
Chorus


LYRICS:

Well I never want to land
'Cause I'm high on you
Beyond all sleight of hand

And tell me if you're sure
And I won't pretend to fall down anymore
'Cause you're all I really want

Headlong, I'm falling in headlong

And act a little braver
And the lies that try to trip you
Will be my slaves

And tell me if you're sure
And the precious, precious waiting I've endured
'Cause you're all I'll ever want

Headlong, I'm falling in headlong
Headlong, I'm falling in headlong

Headlong, I'm falling in headlong
Headlong, I'm falling in headlong

ooooh ooooh 
            
Submit corrections

↑ Back to top | Tablatures and chords for acoustic guitar and electric guitar, ukulele, drums are parodies/interpretations of the original songs. You may use it for private study, scholarship, research or language learning purposes only