Home » F » Frames »

Frames - Revelate Tabs

Artists:  A B C D E F G H I J K L M N O P Q R S T U V W X Y Z # 

Revelate Tabs

(ver. 1) Click to play this song!
Frames
song - Revelate (Live)
Artist - The Frames



Intro/Verse
e--4-4-4---2-2--0-0--0-0-0--
B--5-5-5---4-4--2-2--0-0-0--
G--6-6-6---4-4--2-2--1-1-1--
D--6-6-6---4-4--2-2--2-2-2--
A--4-4-4---2-2--0-0--2-2-2--
E--4-4-4---2-2--0-0--0-0-0--

Chorus
e--0--0-2-4-5----------
B--0--0-2-4-5----------
G--1--1-2-4-6----------
D--2--2-4-6-7----------
A--2--2-4-6-7----------
E--0--0-2-4-5----------

Bridge
E-----0----0----0----0----2----4----4
B-----9----8----7----5----2----4----5
G-----9----9----8----6----2----5----6
D-----11--10----9----7----4----6----6
A-----11--10----9----7----4----6----4
E-----9----8----7----5----2----5----
            
Submit corrections

↑ Back to top | Tablatures and chords for acoustic guitar and electric guitar, ukulele, drums are parodies/interpretations of the original songs. You may use it for private study, scholarship, research or language learning purposes only