» » »

Foxboro Hot Tubs - Red Tide Tabs

Artists:  A B C D E F G H I J K L M N O P Q R S T U V W X Y Z # 

Red Tide Tabs

(ver. 1) Click to play this song!
Foxboro Hot Tubs
 Rating:
4/5 (6 votes)

 Red Tide lessons Tabs too difficult? Try these video lessons and learn fast
 
                -------------------------------------------------------------------------------
-------------------------------------------------------------------------------

Tuning: Standard EADGBe

I'll tab out the different parts, then give the structure at the end.

Intro (Clean, all the rest of the song has distortion):
e|--------------|
B|-10~----8~----|
G|-7~-----5~----|
D|--------------|
A|--------------|
E|--------------|

Main Riff:
e|-------------|
B|-------------|
G|-------------|
D|-3-3/5-5---3-|
A|-3-3/5-5---3-|
E|-1-1/3-3---1-|

Verse:
e|----------------------------------------------------|
B|----------------------------------------------------|
G|------------------3-3/5-5---3-----------------------|
D|-3-3/5-5---3- x8 -3-3/5-5---3- x4 -3-3/5-5---3- x4--| 
A|-3-3/5-5---3------1-1/3-3---1------3-3/5-5---3------|
E|-1-1/3-3---1-----------------------1-1/3-3---1------|

Chorus:
e|-10~----8~--8----|
B|-10~----8~---8---|
G|-7~-----5~----5--|
D|-----------------|
A|-----------------|
E|-----------------|

Solo:
I think it mainly consists of these two notes being bent and repeated:
e|--------|
B|--------|
G|--------|
D|----10--|
A|-10-----|
E|--------|

Structure:
Intro
Main Riff x4
Verse
Chorus
Main Riff x4
Verse
Chorus
Main Riff x4
Solo (over first half of Verse)
Second half of Verse
Chorus
Main Riff x4 (Finish on E|3)

The End


| /  slide up
| \  slide down
| h  hammer-on
| p  pull-off
| ~  vibrato
| +  harmonic
| x  Mute note
===============================================================================
            
Submit corrections


        Red Tide lessons Hard to play? Try these video lessons and learn fast Red Tide lessons
        
↑ Back to top | Tablatures and chords for acoustic guitar and electric guitar, ukulele, drums are parodies/interpretations of the original songs. You may use it for private study, scholarship, research or language learning purposes only