» » »

Four Seasons - Beggin Bass

Artists:  A B C D E F G H I J K L M N O P Q R S T U V W X Y Z # 

Beggin Bass

(ver. 2) Click to play this song!
Four Seasons
 Rating:
4.2/5 (30 votes)

 Beggin lessons Tabs too difficult? Try these video lessons and learn fast
 
                Intro]
G|--7-5----------------------------------|
D|------7-5------------------------------|
A|-----------8-5------3-5-----3-5-----3-5|
E|------------------5-------5-------5----|

[Verse]
Beggin', put your lovin' hand out, baby
Beggin' you, put your lovin' hand out, baby
Ridin' high when I was king
Played it hard and fast cause I had everything
Walked away, wonderin' then
But easy come and easy go and it would end
I'm beggin' you, won't you give your hand out, baby
Beggin', put your lovin' hand out, baby
G|----------------------------------------------------|
D|--------------3---3--3-3-5-3-------------7---7--7--7|
A|--5---5--5--7----------------7---7--7--7-------8--7-|
E|----------------------------------------------------|x6

[Chorus]
I need you to understand
That I tried so hard to be a man
The kind of man you'd want in the end
Only then can I begin to live again
G|-------------------------------------------------|
D|--------------5---5--4-------------5---7---7--7--|
A|--5---5--7--8----------8-7--7--7-8---7-------8--7|
E|-------------------------------------------------|x2

[Verse]
An empty shell I used to be
Shadow of my life is hangin' over me
Broken man that I don't know
Will leave it standing, devil's dancing with my soul
Beggin' you, won't you give your hand out, baby
Beggin', put your lovin' hand out, baby
G|----------------------------------------------------|
D|--------------3---3--3-3-5-3-------------7---7--7--7|
A|--5---5--5--7----------------7---7--7--7-------8--7-|
E|----------------------------------------------------|x4

[Chorus]
I'm fightin' hard to hold my own
No, I just can't make it all alone
I'm holdin' on, I can't fall back
Now that big brass ring is a shade of black
G|-------------------------------------------------|
D|--------------5---5--4-------------5---7---7--7--|
A|--5---5--7--8----------8-7--7--7-8---7-------8--7|
E|-------------------------------------------------|x2

{Interlude]
G|----------------------------------------|
D|----------------------------------------|
A|--5---5---3--5---5---3--5---5---3--5---5|
E|--------5----------5----------5---------|

[Outro]
I'm beggin' you, give your hand out, baby
Beggin', won't you put your lovin' hand out, baby
G|----------------------------------------------------|
D|--------------3---3--3-3-5-3-------------7---7--7--7|
A|--5---5--5--7----------------7---7--7--7-------8--7-|
E|----------------------------------------------------|x3
The third time it fades out.            
Submit corrections


        Beggin lessons Hard to play? Try these video lessons and learn fast Beggin lessons
        
↑ Back to top | Tablatures and chords for acoustic guitar and electric guitar, ukulele, drums are parodies/interpretations of the original songs. You may use it for private study, scholarship, research or language learning purposes only