» » »

Four Seasons - Oh What A Night Bass

Artists:  A B C D E F G H I J K L M N O P Q R S T U V W X Y Z # 

Oh What A Night Bass

(ver. 1) Click to play this song!
Four Seasons
 Rating:
4/5 (4 votes)
                ----------------------------------------------------------------------------
		Oh What A Night - Frankie Valli & the Four Seasons
----------------------------------------------------------------------------


Tuning:standard (EADGBe)

Main Riff (Enter when piano plays main riff for the 3rd time after vocals enter)
G|-------------------------|------------|----------------------------------|
D|-6-----------------4-4---|-4--4--6~---|----------------------------------|
A|-----------4--6--8-------|------------|----------------------------------|
E|--4--6--8----------------|------------|----------------------------------|
repeat this 6 times

G|-------------------|---------------|--------------|-----------|
D|-6-----------------|--8~----/11\6~-|-6h8p6-6h8----|-----------|
A|-----------6~------|---------------|------8----6~-|--6/9~-----|
E|--4--6--8----------|---------------|--------------|-----------|

G|-------------|
D|-6-----------|
A|---6---------|
E|-----4-------|
Play this 3 times and go back to main riff. play main riff only 4 times, then go to this part:

G|---------|---------------------------------|--------|
D|---------|---------------------------------|--------|
A|---------|----------------------------4--6-|8p4-6p4-|
E|-4--6--8-|-6-6--1h4p1--6-6--1h4p1--6-------|--------|

G|---------------------------------|--------|
D|---------------------------------|--------|
A|----------------------------4--6-|6p4-6p4-|
E|-6-6--1h4p1--6-6--1h4p1--6-------|--------|


G|------------------------------------|-----------345~------|
D|------------------------------------|-----3---36----------|
A|-/6-6---6-6---8-8---8-8---9-9---9-9-|---36--36------------|
E|------------------------------------|-46------------------|
Go back to main riff after this

This is pretty much how to song goes onwards beginning onwards. After this, the riffs 
played but in different sequence. Listen to the song to know when to play which riff. This 

| /  slide up
| \  slide down
| h  hammer-on
| p  pull-off
| ~  let ring
| +  harmonic
| x  Mute note
===============================================================================
            
Submit corrections

↑ Back to top | Tablatures and chords for acoustic guitar and electric guitar, ukulele, drums are parodies/interpretations of the original songs. You may use it for private study, scholarship, research or language learning purposes only