» » »

Four Letter Lie - Nothing But A Ghost Tabs

Artists:  A B C D E F G H I J K L M N O P Q R S T U V W X Y Z # 

Nothing But A Ghost Tabs

(ver. 2) Click to play this song!
Four Letter Lie
 Rating:
4/5 (4 votes)
                (Intro)
This is my first tab, I'm not sure how correct it is, but there were no other
tabs for this song, so i thought maybe I could throw an idea out there.



e|-----------------------------------------------------------------|
B|-------10--10p7-10/12--------10--10/12-12/14---12-10----10----10-|
G|-----7---------------------7-------------------------11----11----|
D|-7/9-------------------7/9---------------------------------------|\ 
A|-----------------------------------------------------------------| \ 
E|-----------------------------------------------------------------|  \ 
                                                                       \ 
e|-----------------------------------------------------------------|   / x2
B|-14-12-------10/12--12-10----10----10----------------------------|  /
G|-------11/13--------------11----11------13-11-9------------------| /
D|-----------------------------------------------------------------|/  
A|-----------------------------------------------------------------| 
E|-----------------------------------------------------------------|
            
Submit corrections

↑ Back to top | Tablatures and chords for acoustic guitar and electric guitar, ukulele, drums are parodies/interpretations of the original songs. You may use it for private study, scholarship, research or language learning purposes only